Oops, an error
Loading. Please wait.

Kill Rock N Roll Bass Tab

version 3
version 3
539 views 6 this week
no commentswrite comment
1 2 3 4 5
please rate
add to favorites
launch autoscroll
font size
0
reset
guitar tuner
Tab Pro tools
  • play this tab
  • loop segment
  • change instrument
  • show fretboard
  • metronome
×
Best way to learn
"Kill Rock N Roll"
Autoscroll
slow
fast
+/-
esc
set tempo
stop
Contributor
Difficulty
intermediate
I did this tab all by ear..report me if something is wrong :)

The intro is played only by the guitar

Bass starts at 0:21

Verse 1 (0:21):

G|---------------------------------------|
D|---------------------------------------|
A|------3~-------2~----0000000000000000--|
E|--3~-------2~--------------------------|   x2

Chorus (0:32): 

G|--------------------------------------------------------------------|
D|--------------------------------------------------------------------|
A|--3-3-3-3-3-3-3-3-----------------2-2-2-2-2-2-2-2--3-3-3-3-3-3-3-3--|
E|------------------0-0-0-0-0-0-0-0-----------------------------------|

Verse 1 (0:42):

G|---------------------------------------|
D|---------------------------------------|
A|------3~-------2~----0000000000000000--|
E|--3~-------2~--------------------------|   x2

Chorus (0:53): 

G|--------------------------------------------------------------------|
D|--------------------------------------------------------------------|
A|--3-3-3-3-3-3-3-3-----------------2-2-2-2-2-2-2-2--3-3-3-3-3-3-3-3--|
E|------------------0-0-0-0-0-0-0-0-----------------------------------|

Bridge (1:03) :

G|------------------------------|-------------------------------------|
D|------------------------------|-------------------------------------|
A|------------------------------|-------------------------------------|
E|--3~~~~~~-8~/7~~--2~~~-3~~~---|-3333-8~/77777777-22222222-33333333--|

Verse 2 (1:24) : 

G|----------------------------------------|
D|----------------------------------------|
A|--3-3-3-3-3-3-3-3-----------------------|
E|------------------0-0-0-0-0-0-0-0-------|   x4

(stop) 1:44

Chorus (1:45) :

G|--------------------------------------------------------------------|
D|--------------------------------------------------------------------|
A|--3-3-3-3-3-3-3-3-----------------2-2-2-2-2-2-2-2--3-3-3-3-3-3-3-3--|
E|------------------0-0-0-0-0-0-0-0-----------------------------------|

Bridge 2 (1:55) :

G|-------------------------------------|------------------------------------|
D|-------------------------------------|------------------------------------|
A|-------------------------------------|------------------------------------|
E|-3333-8~/77777777-22222222-33333333--|-3333-8~/77777777-22222222-33333333-|

Ending (2:16) : 

G|-----------------|-----------------|-----------------|---------|
D|-----------------|-----------------|-----------------|---------|
A|----3~----2~--0--|----3~----2~--0--|----3~----2~--0--|---------|
E|-3~----2~--------|-3~----2~--------|-3~----2~--------|--3~~~~--|


Enjoy you :)

comments
We did not receive enough feedback on this tab! Please rate:
print report bad tab
1 2 3 4 5
I want to post or [tab]
guest
You may want to rate the tab now too:
select rating
Please do not post tabs as comments. Select "correction" instead!