Oops, an error
Loading. Please wait.
We have an official Kill Rock N Roll tab made by UG professional guitarists. Check out the tab »
×
10,436 views 129 this week
6 commentsread comments
1 2 3 4 5
x 7
add to favorites
×
Save as Personal and add changes to this tab that will be seen only by you. Learn more ›
×
You can save this tab as Personal to edit and correct it or add notes. All changes will be seen only by you. Learn more »
launch autoscroll
font size
0
reset
how to read this tab
guitar tuner
backing track
0:00
0:00
edit
Autoscroll
slow
fast
+/-
esc
set tempo
stop
Author
Kill Rock and Roll
System of a Down
Hypnotize
2005
Tuning: Low to High (C# G# C# F# A# D#) or (Db Ab Db Gb Bb Eb)
I'm pretty sure this is correct, try for yourself, email me with corrections at 
Happy playing.

Intro (Clean)
D#||-------------------------------------------------------------------------|
A#||-------------------------------------------------------------------------|
F#||-------------------------------------------------------------------------|
C#||---10---10---10---10---10---10---10----10----10---10---10---10---10---10-|
G#||-8----8----8----8----8----8----8----8------------------------------------|
C#||--------------------------------------7----7----7----7----7----7----7----|

D#||-----------------------------------------------------------------------|
A#||-----------------------------------------------------------------------|
F#||-----------------------------------------------------------------------|
C#||---10--9---9---9---9---9---9---9---9---9---9---9---9---9---9---9--9----|
G#||------7---7---7---7---7---7---7---7---8---8---8---8---8---8---8--8-----|
C#||-7---------------------------------------------------------------------|

Not sure this is accurate, close as i could get.
D#||-12-12-12-12-12-12-12-12-12-12-12-12-14-14-14-9--9--9--9--9--9--9--9--9--|
A#||-13-13-13-13-13-13-13-13-13-13-13-13-15-15-15-10-10-10-10-10-10-10-10-10-|
F#||-------------------------------------------------------------------------|
C#||-------------------------------------------------------------------------|
G#||-------------------------------------------------------------------------|
C#||-------------------------------------------------------------------------|

D#||-9--9--9--12-14-12-11-12--9~--||
A#||-10-10-10-12-15-13-12-13-10~--||
F#||------------------------------||
C#||------------------------------||
G#||------------------------------||
C#||------------------------------||
Pre-Chorus/Verse (So I felt like the biggest asshole...)
D#||--------------------------------------------------------||
A#||--------------------------------------------------------||
F#||--------5-5-5---------4-4-------------------------------||
C#||-3-3-3--5-5-5--2-2-2--4-4--7-7-7-7-7-7-7-7-7-7-7-7-7-7--||
G#||-3-3-3--3-3-3--2-2-2--2-2--7-7-7-7-7-7-7-7-7-7-7-7-7-7--||
C#||-3-3-3---------2-2-2-------7-7-7-7-7-7-7-7-7-7-7-7-7-7--||
PM     - -    - -    - -  - -    - - - - - - - - - - - - -

Chorus (Everytime I look in your eyes...)
D#||------------------------------------------------------------------------|
A#||------------------------------------------------------------------------|
F#||-10-10-10-10-10-10-10-10-10-10-10-10-10-10-10-10------------------------|
C#||-10-10-10-10-10-10-10-10-10-10-10-10-10-10-10-10--10-10-10-10-10-10-10--|
G#||--8--8--8--8--8--8--8--8--8--8--8--8--8--8--8--8---7--7--7--7--7--7--7--|
C#||---------------------------------------------------7--7--7--7--7--7--7--|

D#||-------------------------------------------------------------------------|
A#||-------------------------------------------------------------------------|
F#||-----------------------------9-9-9-9-9-9-9-9-9-9-9-9-9-9-9-9-10-10-10-10-|
C#||-10-10-10-10-10-10-10-10-10--9-9-9-9-9-9-9-9-9-9-9-9-9-9-9-9--9--9--9--9-|
G#||--7--7--7--7--7--7--7--7--7--7-7-7-7-7-7-7-7-7-7-7-7-7-7-7-7--8--8--8--8-|
C#||--7--7--7--7--7--7--7--7--7----------------------------------------------|

D#||-------------------------------------||
A#||-------------------------------------||
F#||-10-10-10-10-10-10-10-10-10-10-10-10-||
C#||--9--9--9--9--9--9--9--9--9--9--9--9-||
G#||--8--8--8--8--8--8--8--8--8--8--8--8-||
C#||-------------------------------------||

Riff 1a (strum each chord once)
D#||-----------------||
A#||-----------------||
F#||-----------------||
C#||-3--/-8/7-/2-2-3-||
G#||-3--/-8/7-/2-2-3-||
C#||-3--/-8/7-/2-2-3-||

Bridge (Palm Muted)
D#||-------------------------------------------------------------------------|
A#||-------------------------------------------------------------------------|
F#||---------5----------------5-----------------3-----------------3----------|
C#||-----6-----6----------6-----6----------5------5----------5------5--------|
G#||---6---6-----6------6---6-----6------5---5------5------5---5------5------|
C#||-6-------------6--6-------------6--5-------------5--5--------------5-----|

Riff 1b
D#||---------------------------------||
A#||---------------------------------||
F#||---------------------------------||
C#||-3-3-3/8/7-7-7-7/2-2-2-2-2/3-3-3-||
G#||-3-3-3/8/7-7-7-7/2-2-2-2-2/3-3-3-||
C#||-3-3-3/8/7-7-7-7/2-2-2-2-2/3-3-3-||

Riff 1c (Palm Muted)
D#||-------------------------------------------------------------------------|
A#||-------------------------------------------------------------------------|
F#||-------------------------------------------------------------------------|
C#||-3-3-3-3-3-3-3-3-3-3-3-3-3-3-3-3-8-8-8-8-7-7-7-7-7-7-7-7-7-7-7-7-7-7-7-7-|
G#||-3-3-3-3-3-3-3-3-3-3-3-3-3-3-3-3-8-8-8-8-7-7-7-7-7-7-7-7-7-7-7-7-7-7-7-7-|
C#||-3-3-3-3-3-3-3-3-3-3-3-3-3-3-3-3-8-8-8-8-7-7-7-7-7-7-7-7-7-7-7-7-7-7-7-7-|

D#||-----------------------------------------------------------------||
A#||-----------------------------------------------------------------||
F#||-----------------------------------------------------------------||
C#||-2-2-2-2-2-2-2-2-2-2-2-2-2-2-2-2-3-3-3-3-3-3-3-3-3-3-3-3-3-3-3-3-||
G#||-2-2-2-2-2-2-2-2-2-2-2-2-2-2-2-2-3-3-3-3-3-3-3-3-3-3-3-3-3-3-3-3-||
C#||-2-2-2-2-2-2-2-2-2-2-2-2-2-2-2-2-3-3-3-3-3-3-3-3-3-3-3-3-3-3-3-3-||

Outro
D#||-------------------------------------------------------------------------|
A#||-------------------------------------------------------------------------|
F#||--------5-5-5---------4-4-4---------5-5-5---------4-4-4------------------|
C#||-3-3-3--5-5-5--2-2-2--4-4-4--3-3-3--5-5-5--2-2-2--4-4-4------------------|
G#||-3-3-3--3-3-3--2-2-2--2-2-2--3-3-3--3-3-3--2-2-2--2-2-2------------------|
C#||-3-3-3---------2-2-2---------3-3-3---------2-2-2---------3-3-3-3-3-3-3-3-|
PM     - -    - -    - -    - -    - -    - -    - -    - -(Tremolo Picking)

D#||------------------------------------------------------------------------|
A#||------------------------------------------------------------------------|
F#||------------------------------------------------------------------------|
C#||------------------------------------------------------------------------|
G#||------------------3-3-3-3-3-3-3-3-3-3-3-3-3-3-3-3-----------------------|
C#||-3-3-3-3-3-3-3-3----------------------------------2-2-2-2-2-2-2-2-2-2-2-|

D#||-------------------------------------------------------------------------|
A#||-------------------------------------------------------------------------|
F#||-------------------------------------------------------------------------|
C#||-------------------------------------------------------------------------|
G#||------------2-2-2-2-2-2-2-2-2-2-2-2-2-2-2-2------------------------------|
C#||-2-2-2-2-2-----------------------------------2-2-2-2-2-2-2-2-2-2-2-2-2-2-|

D#||-------------------------------------------------------------------------|
A#||-------------------------------------------------------------------------|
F#||-------------------------------------------------------------------------|
C#||-------------------------------------------------------------------------|
G#||-------------------------------------3-3-3-3-3-3-3-3-3-3-3-3-3-3-3-3-----|
C#||-2-2-3-3-3-3-3-3-3-3-3-3-3-3-3-3-3-3---------------------------------2-2-|

D#||--------------------------------------------------------------------||
A#||--------------------------------------------------------------------||
F#||--------------------------------------------------------------------||
C#||--------------------------------------------------------------------||
G#||-----------------------------2-2-2-2-2-2-2-2-2-2-2-2-2-2-2-2-0------||
C#||-2-2-2-2-2-2-2-2-2-2-2-2-2-2----------------------------------------||

And there you have it folks, System at their best. Email me with queries, suggestions or 
Thanks.
Suggest correction
Creating personal tab
Creating personal tab
You can edit any tab online and save it as your Personal.

You can edit, replace or remove any tab part or add personal notes – all changes will be seen only by you.

Personal tabs can be accessed anytime from any device, even offline.
Learn more »
comments
print report bad tab
6 comments total. Showing first comments.
0 reply
Hangar_18 616 Nov 30, 2005 11:44 AM

i was thinkin about tabbin this song out, but yours kicks my ass! this is great! keep up the good work

0 reply
astepabove 10 Dec 12, 2005 11:51 AM

jimmy is right, great tab!

0 reply
Jord1235 10 Dec 31, 2005 08:31 AM

awesum, keep it up

guest
You may want to rate the tab now too:
select rating
Wanna post a correction for this tab? Suggest correction