Oops, an error
Loading. Please wait.

Kill Rock N Roll Tab

version 5
version 5
91,724 views 132 this week
26 commentsread comments
1 2 3 4 5
excellent!
x 30
add to favorites
launch autoscroll
font size
0
reset
how to read this tab
guitar tuner
Tab Pro tools
  • play this tab
  • loop segment
  • change instrument
  • show fretboard
  • metronome
×
Best way to learn
"Kill Rock N Roll"
Autoscroll
slow
fast
+/-
esc
set tempo
stop
Contributor
-------------------------------------------------------------------------------
                             KILL ROCK 'N ROLL - System of a Down
-------------------------------------------------------------------------------
Tabbed by: slyo
Email: sly at davidhurst dot net

I realise this is the millionth tab of this song, but hey it's a little more correct than most 8)

Gtr I   (C# G# C# F# A# D#) - Clean
Gtr II  (C# G# C# F# A# D#) - Clean
Gtr III (C# G# C# F# A# D#) - Distorted

[Intro]
    Gtr I
D#||-----------------------------------------|----------------------------------------|
A#||-----------------------------------------|----------------------------------------|
F#||-----------------------------------------|----------------------------------------|
C#||---10---10---10---10---10---10---10---10-|---10---10---10---10---10---10---10--10-|
G#||-8----8----8----8----8----8----8----8----|-0----0----0----0----0----0----0---0----|
C#||-----------------------------------------|----------------------------------------|

[Intro]
    Gtr I
D#|-----------------------------------|---------------------------------||
A#|-----------------------------------|---------------------------------||
F#|-----------------------------------|---------------------------------||
C#|-10\-9---9---9---9---9---9---9---9-|---9---9---9---9---9---9---9---9-||
G#|---7---7---7---7---7---7---7---7---|-8---8---8---8---8---8---8---8---||
C#|-----------------------------------|---------------------------------||

[Intro]
    Gtr I
D#||-13-13-13-13-13-13-13-13-13-13-13-13-13-13-13-13-|-12-12-12-12-12-12-12-12-12-12-12-12-12-12-13-13-|
A#||-15-15-15-15-15-15-15-15-15-15-15-15-15-15-15-15-|-13-13-13-13-13-13-13-13-13-13-13-13-13-13-------|
F#||-------------------------------------------------|-------------------------------------------------|
C#||-------------------------------------------------|-------------------------------------------------|
G#||-------------------------------------------------|-------------------------------------------------|
C#||-------------------------------------------------|-------------------------------------------------|
  |
  | Gtr II
D#||-------------------------------------------------|-------------------------------------------------|
A#||-------------------------------------------------|-------------------------------------------------|
F#||-------17-16-17-16-17-16-17-16-17-16-17-16-17-16-|-17-16-17-16-17-16-17-16-17-16-17-16-17-16-17-16-|
C#||-------------------------------------------------|-------------------------------------------------|
G#||-------------------------------------------------|-------------------------------------------------|
C#||-------------------------------------------------|-------------------------------------------------|

[Intro]
    Gtr I
D#|-15-15-15-15-------------------------------------|-------------------------------------------------||
A#|-------------15-15-15-15-12-12-12-12-15-15-15-15-|-13-13-13-13-13-13-13-13-13-13-13-13-13-13-13-13-||
F#|-------------------------------------------------|-------------------------------------------------||
C#|-------------------------------------------------|-------------------------------------------------||
G#|-------------------------------------------------|-------------------------------------------------||
C#|-------------------------------------------------|-------------------------------------------------||
  |
  | Gtr II
D#|-------------------------------------------------|-------------------------------------------------||
A#|-------------------------------------------------|-------------------------------------------------||
F#|-14-16-14-16-14-16-14-16-14-16-14-16-14-16-14-16-|-17-16-17-16-17-16-17-16-17-16-17-16-17-16-17-16-||
C#|-------------------------------------------------|-------------------------------------------------||
G#|-------------------------------------------------|-------------------------------------------------||
C#|-------------------------------------------------|-------------------------------------------------||

[Verse]
    Gtr III
D#||----------------------------|---------------------------------|
A#||----------------------------|---------------------------------|
F#||--------5-------------4-----|-2-------------------------------|
C#||-3------5-5-5--2------4-4-4-|-2-2-2-2-2-2-2-2-2-2-2-2-2-2-2-2-|
G#||-3-3-3--3-3-3--2-2-2--2-2-2-|-0-0-0-0-0-0-0-0-0-0-0-0-0-0-0-0-|
C#||-3-3-3---------2-2-2--------|---------------------------------|
pm     |__    |__    |__    |__     |____________________________

[Verse]
    Gtr III
D#|----------------------------|---------------------------------||
A#|----------------------------|---------------------------------||
F#|--------5-------------4-----|-2-------------------------------||
C#|-3------5-5-5--2------4-4-4-|-2-2-2-2-2-2-2-2-2-2-2-2-2-2-2-2-||
G#|-3-3-3--3-3-3--2-2-2--2-2-2-|-0-0-0-0-0-0-0-0-0-0-0-0-0-0-0-0-||
C#|-3-3-3---------2-2-2--------|---------------------------------||
pm    |__    |__    |__    |__     |_____________/

[Chorus]
    Gtr III
D#||-------------------------------------------------|-------------------------------------------------|
A#||-------------------------------------------------|-------------------------------------------------|
F#||-------------------------------------------------|-------------------------------------------------|
C#||-10-10-10-10-10-10-10-10-10-10-10-10-10-10-10-10-|-10-10-10-10-10-10-10-10-10-10-10-10-10-10-10-10-|
G#||--8--8--8--8--8--8--8--8--8--8--8--8--8--8--8--8-|--0--0--0--0--0--0--0--0--0--0--0--0--0--0--0--0-|
C#||-------------------------------------------------|-------------------------------------------------|

[Chorus]
    Gtr III
D#||---------------------------------|---------------------------------||
A#||---------------------------------|---------------------------------||
F#||---------------------------------|---------------------------------||
C#||-9-9-9-9-9-9-9-9-9-9-9-9-9-9-9-9-|-9-9-9-9-9-9-9-9-9-9-9-9-9-9-9-9-||
G#||-7-7-7-7-7-7-7-7-7-7-7-7-7-7-7-7-|-8-8-8-8-8-8-8-8-8-8-8-8-8-8-8-8-||
C#||---------------------------------|---------------------------------||

[Verse]
    Gtr III
D#||----------------------------|---------------------------------|
A#||----------------------------|---------------------------------|
F#||--------5-------------4-----|-2-------------------------------|
C#||-3------5-5-5--2------4-4-4-|-2-2-2-2-2-2-2-2-2-2-2-2-2-2-2-2-|
G#||-3-3-3--3-3-3--2-2-2--2-2-2-|-0-0-0-0-0-0-0-0-0-0-0-0-0-0-0-0-|
C#||-3-3-3---------2-2-2--------|---------------------------------|
pm     |__    |__    |__    |__     |____________________________

[Verse]
    Gtr III
D#|----------------------------|---------------------------------||
A#|----------------------------|---------------------------------||
F#|--------5-------------4-----|-2-------------------------------||
C#|-3------5-5-5--2------4-4-4-|-2-2-2-2-2-2-2-2-2-2-2-2-2-2-2-2-||
G#|-3-3-3--3-3-3--2-2-2--2-2-2-|-0-0-0-0-0-0-0-0-0-0-0-0-0-0-0-0-||
C#|-3-3-3---------2-2-2--------|---------------------------------||
pm    |__    |__    |__    |__     |_____________/

[Chorus]
    Gtr III
D#||-------------------------------------------------|-------------------------------------------------|
A#||-------------------------------------------------|-------------------------------------------------|
F#||-------------------------------------------------|-------------------------------------------------|
C#||-10-10-10-10-10-10-10-10-10-10-10-10-10-10-10-10-|-10-10-10-10-10-10-10-10-10-10-10-10-10-10-10-10-|
G#||--8--8--8--8--8--8--8--8--8--8--8--8--8--8--8--8-|--0--0--0--0--0--0--0--0--0--0--0--0--0--0--0--0-|
C#||-------------------------------------------------|-------------------------------------------------|

[Chorus]
    Gtr III
D#||---------------------------------|---------------------------------||
A#||---------------------------------|---------------------------------||
F#||---------------------------------|---------------------------------||
C#||-9-9-9-9-9-9-9-9-9-9-9-9-9-9-9-9-|-9-9-9-9-9-9-9-9-9-9-9-9-9-9-9-9-||
G#||-7-7-7-7-7-7-7-7-7-7-7-7-7-7-7-7-|-8-8-8-8-8-8-8-8-8-8-8-8-8-8-8-8-||
C#||---------------------------------|---------------------------------||

[Pre-Bridge]
    Gtr III
D#||-------------|-------------|--------------|--------------|
A#||-------------|-------------|--------------|--------------|
F#||-------------|-------------|--------------|--------------|
C#||-3--------/8-|-7-----------|-\2-----------|-3------------|
G#||-3--------/8-|-7-----------|-\2-----------|-3------------|
C#||-3--------/8-|-7-----------|-\2-----------|-3------------|
lr   |________     |____________ |____________ |_____________

[Pre-Bridge]
    Gtr III
D#||-------------|-------------|--------------|--------------||
A#||-------------|-------------|--------------|--------------||
F#||-------------|-------------|--------------|--------------||
C#||-3--------/8-|-7-----------|-\2---------2-|-3------------||
G#||-3--------/8-|-7-----------|-\2---------2-|-3------------||
C#||-3--------/8-|-7-----------|-\2---------2-|-3------------||
lr   |________     |____________ |__________   |_____________



[Bridge]
    Gtr I
D#||-----------------------------------|----------------------------------|
A#||o----------------------------------|---------------------------------o|
F#||-----------------------------------|----------------------------------|
C#||-----9---10-7---------9---10-7-----|-----7---8-5---------7---8-5------|
G#||o--8---8------8-7---8---8------8-7-|---6---6-----6-5---6---6-----6-5-o|
C#||-7----------------7----------------|-5---------------5----------------|
pm  |_____________________________________________________________________

[Bridge]
   Gtr III                              1.                                 2.
D#|-----------------------------------|----------------------------------||----------------------------------||
A#|o----------------------------------|---------------------------------o||----------------------------------||
F#|-----------------------------------|----------------------------------||----------------------------------||
C#|-----9---10-7---------9---10-7-----|-----7---8-5---------7---8-5------||-----7---8-5-----5----------------||
G#|o--8---8------8-7---8---8------8-7-|---6---6-----6-5---6---6-----6-5-o||---6---6-----6-5-5----------------||
C#|-7----------------7----------------|-5---------------5----------------||-5---------------5----------------||
pm  |______________________________________________________________________________________

[Chorus]
    Gtr III
D#||-------------------------------------------------|-------------------------------------------------|
A#||-------------------------------------------------|-------------------------------------------------|
F#||-------------------------------------------------|-------------------------------------------------|
C#||-10-10-10-10-10-10-10-10-10-10-10-10-10-10-10-10-|-10-10-10-10-10-10-10-10-10-10-10-10-10-10-10-10-|
G#||--8--8--8--8--8--8--8--8--8--8--8--8--8--8--8--8-|--0--0--0--0--0--0--0--0--0--0--0--0--0--0--0--0-|
C#||-------------------------------------------------|-------------------------------------------------|

[Chorus]
    Gtr III
D#||---------------------------------|---------------------------------||
A#||---------------------------------|---------------------------------||
F#||---------------------------------|---------------------------------||
C#||-9-9-9-9-9-9-9-9-9-9-9-9-9-9-9-9-|-9-9-9-9-9-9-9-9-9-9-9-9-9-9-9-9-||
G#||-7-7-7-7-7-7-7-7-7-7-7-7-7-7-7-7-|-8-8-8-8-8-8-8-8-8-8-8-8-8-8-8-8-||
C#||---------------------------------|---------------------------------||

[Bridge II]
    Gtr III
D#||----------------|---------------|----------------------|--------------------|
A#||----------------|---------------|----------------------|--------------------|
F#||----------------|---------------|----------------------|--------------------|
C#||-3---3---3---/8-|-7---7---7---7-|-\2---2---2---2-2-2-2-|-3---3---3---3--3-3-|
G#||-3---3---3---/8-|-7---7---7---7-|-\2---2---2---2-2-2-2-|-3---3---3---3--3-3-|
C#||-3---3---3---/8-|-7---7---7---7-|-\2---2---2---2-2-2-2-|-3---3---3---3--3-3-|


[Bridge II]
   Gtr III
D#|---------------------------------|---------------------------------|
A#|---------------------------------|---------------------------------|
F#|---------------------------------|---------------------------------|
C#|-3-3-3-3-3-3-3-3-3-3-3-3-8-8-8-8-|-7-7-7-7-7-7-7-7-7-7-7-7-7-7-7-7-|
G#|-3-3-3-3-3-3-3-3-3-3-3-3-8-8-8-8-|-7-7-7-7-7-7-7-7-7-7-7-7-7-7-7-7-|
C#|-3-3-3-3-3-3-3-3-3-3-3-3-8-8-8-8-|-7-7-7-7-7-7-7-7-7-7-7-7-7-7-7-7-|
pm |_________________________________________________________________

[Bridge II]
   Gtr III
D#|---------------------------------|---------------------------------||
A#|---------------------------------|---------------------------------||
F#|---------------------------------|---------------------------------||
C#|-2-2-2-2-2-2-2-2-2-2-2-2-2-2-2-2-|-3-3-3-3-3-3-3-3-3-3-3-3-3-3-3-3-||
G#|-2-2-2-2-2-2-2-2-2-2-2-2-2-2-2-2-|-3-3-3-3-3-3-3-3-3-3-3-3-3-3-3-3-||
C#|-2-2-2-2-2-2-2-2-2-2-2-2-2-2-2-2-|-3-3-3-3-3-3-3-3-3-3-3-3-3-3-3-3-||
pm |___________________________________________________/

[Extro]
    Gtr III
D#||------------------------------||
A#||o----------------------------o||
F#||---------5-------------4------||
C#||--3------5-5-5--2------4-4-4--||
G#||o-3-3-3--3-3-3--2-2-2--2-2-2-o||
C#||--3-3-3---------2-2-2---------||
pm      |__    |__    |__    |__

[Extro]
    Gtr III
D#||------------------------------------------||
A#||------------------------------------------||
F#||------------------------------------------||
C#||----------------------------------------2-||
G#||------3--------2----------3-----------2-0-||
C#||-3--------2----------3----------2---------||
     tp  tp   tp   tp    tp   tp    tp    tp
pm  |______________________________________

lr = let ring
/  = slide up
\  = slide down
pm = palm mute
tp = tremolo picking
-------------------------------------------------------------------------------
comments
print report bad tab
26 comments total. Showing first comments. show 1 bad comment
+2 reply
derkym wrote on January 16 2006, 11:56 am

Nice tab (especially the bridge). If you watch them play this on the $2 bill show you can tell this is a lot closer to how Daron actually plays it than most of the other tabs on this site.

+2 reply
Devil boy wrote on January 28 2006, 03:10 pm

great tab!
Not as hard as i thought it would be.
Very accurate as well. Two thumbs up!

I want to post or [tab]
guest
You may want to rate the tab now too:
select rating
Please do not post tabs as comments. Select "correction" instead!