Oops, an error
Loading. Please wait.
We have an official Lonely Day tab made by UG professional guitarists. Check out the tab »
×
82,433 views 57 this week
19 commentsread comments
1 2 3 4 5
x 21
add to favorites
×
Save as Personal and add changes to this tab that will be seen only by you. Learn more ›
×
You can save this tab as Personal to edit and correct it or add notes. All changes will be seen only by you. Learn more »
launch autoscroll
font size
0
reset
guitar tuner
backing track
0:00
0:00
edit
Autoscroll
slow
fast
+/-
esc
set tempo
stop
Author
Difficulty
Unregistered
Have fun do an good time 

[Intro] : guitar solo

Bass+Drums :      
F----------------------|      
C-6-6-------9-9--------| X4
G------7-7-------6-6---| (00:38-00:51)
C----------------------|


F----------------------|
C-6--------9-----------| X4
G------7--------6------| (00:51-01:16)
C----------------------|

 
F----------------------|
C----------------------| X2
G-7-7--6-6--9-9--11-11-| (01:16-01:29)
C----------------------|


F-------------------------------------------------|
C-------------------------------------------------| (01:29-0-1:55)
G-7-7-7-7-7-7-7-7-7-7-7-7-8-8-8-8-8-8-8-8-8-8-8-8-|
C-------------------------------------------------|


F----------------------|
C-6--------9-----------| X4
G------7--------6------| (01:55-02:00)
C----------------------|


F----------------------|
C-6-6-------9-9--------| X4
G------7-7-------6-6---| (02:00-02:55)
C----------------------|


outro of guitar

            
            
Suggest correction
Creating personal tab
Creating personal tab
You can edit any tab online and save it as your Personal.

You can edit, replace or remove any tab part or add personal notes – all changes will be seen only by you.

Personal tabs can be accessed anytime from any device, even offline.
Learn more »
comments
print report bad tab
19 comments total. Showing first comments.
+1 reply
consolean2 10 Mar 11, 2006 02:59 PM

sounds alright except it may be one octave too high or not

-1 reply
WhiteHelljumper 51 Mar 26, 2006 07:38 AM

Doesn't System of a Down play in Drop-D tuning

+1 reply
metalhead01 10 Apr 06, 2006 02:39 PM

no they play in c sharp/d flat

guest
Wanna post a correction for this tab? Suggest correction