Oops, an error
Loading. Please wait.

Lonely Day Live tab

367 views 6 this week
no commentswrite comment
1 2 3 4 5
2 more votes to show rating
add to favorites
×
Save as Personal and add changes to this tab that will be seen only by you. Learn more ›
×
You can save this tab as Personal to edit and correct it or add notes. All changes will be seen only by you. Learn more »
launch autoscroll
font size
0
reset
how to read this tab
guitar tuner
edit
Autoscroll
slow
fast
+/-
esc
set tempo
stop
About this tab version
It's from a live and it has a different solo. Was this info helpful? Yes No
Here is the live version : https://www.youtube.com/watch?v=nwVqbZJUTPA

This is my first tab

[Verse 1]
D#|-------------------------------------------------------|
A#|--------1-----------0-----------1-----------0----------|
F#|------2---2-------2---2-------0---0-------1---1--------|  
C#|----2-------2---0-------0---2-------2---2-------2------|  (x2 when the song starts)
G#|--0-----------------------3----------------------------|  (x4 when the singing starts) 
C#|--------------3-----------------------2----------------|

[Chorus]
D#|--------------------------------------------------|
A#|--------------------------------------------------|
F#|-2--2-2-2--------------5--5-5-5-------------------|
C#|-2--2-2-2---3--3-3-3---5--5-5-5---2--2-2-2--------| (x2)
G#|-0--0-0-0---3--3-3-3---3--3-3-3---2--2-2-2--------|
C#|------------3--3-3-3--------------2--2-2-2--------|

[Verse 2]
D#|-------------------------------------------------------|
A#|--------1-----------0-----------1-----------0----------|
F#|------2---2-------2---2-------0---0-------1---1--------|  (x4)  
C#|----2-------2---0-------0---2-------2---2-------2------| 
G#|--0-----------------------3----------------------------|   
C#|--------------3-----------------------2----------------|

[Hook]

D#|-------------------------------------------------------------------------|
A#|-------------------------------------------------------------------------|
F#|-------------------------------------------------------------------------|
C#|-3--3-3-3---2--2-2-2---5--5-5-5---7--7-7-7-------------------------------| (x2)
G#|-3--3-3-3---2--2-2-2---5--5-5-5---7--7-7-7-------------------------------|
C#|-3--3-3-3---2--2-2-2---5--5-5-5---7--7-7-7-------------------------------|

D#|-----------------------------|
A#|-----------------------------|
F#|-----------------------------|
C#|-3----2----------------------|
G#|-3----2----------------------|
C#|-3----2----------------------|
    pm   pm
   (x12)(x12) 


[SOLO]
D#|--------------------------------------------------------------------------------------------------------|
A#|--10-10-10----------------------------------------------------------------------------------------------|
F#|-----------12-10-9-10-9---------------------------------------9-12b14--10-9-10--9h10p9-----9----------9-|
C#|------------------------12-10-9-9-7-7-7-9-7-7-7-10-7-7-12-7-7--------------------------12----12-10-12---|
G#|--------------------------------------------------------------------------------------------------------|
C#|--------------------------------------------------------------------------------------------------------|
            

    (TREMOLO PICK WHEN 15/17 STARTS AT A# STRING) (STOP TREMOLO PICK AT LAST 2 10'S AT A# STRING 
                                                                  and slightly bend the last one) 
D#|--------------------------------------------------------------------------------------------------------|
A#|--15/17--15-17-15-13-15-13-12-13-15-13-12-13-12-------------------------------------10--10-10-10-10-10b-|
F#|------------------------------------------------14-12-14-12-10-12-10-9-10-9-9-10-12---------------------|
C#|--------------------------------------------------------------------------------------------------------|
G#|--------------------------------------------------------------------------------------------------------|
C#|--------------------------------------------------------------------------------------------------------|

D#|--------------------------------------------------------------------------------------------------------|
A#|--------------------------------------------------------------------------------------------------------|
F#|-10-9---------------------------------------------------------------------------------------------------|
C#|------10-12-9-10-7-9-7----------------------------------------------------------------------------------|
G#|--------------------------------------------------------------------------------------------------------|
C#|--------------------------------------------------------------------------------------------------------|

(just before the bridge i believe that it suits just fine to add a
 pinch harmonic specificaly at the G# string 4th fret and vibrate it)



[Bridge]
D#|-------------------------------------------------------------------------|
A#|-------------------------------------------------------------------------|
F#|-2--2-2-2--------------5--5-5-5------------------------------------------|
C#|-2--2-2-2---3--3-3-3---5--5-5-5---2--2-2-2-------------------------------|(x2)
G#|-0--0-0-0---3--3-3-3---3--3-3-3---2--2-2-2-3-2-3-2-----------------------|
C#|------------3--3-3-3--------------2--2-2-2-------------------------------|

D#|-------------------------------------------------------------------------|
A#|-------------------------------------------------------------------------|
F#|-2--2-2-2--------------5--5-5-5------------------------------------------|
C#|-2--2-2-2---3--3-3-3---5--5-5-5---2--2-2-2-------------------------------|(x1)
G#|-0--0-0-0---3--3-3-3---3--3-3-3---2--2-2-2-------------------------------|
C#|------------3--3-3-3--------------2--2-2-2-------------------------------|

D#|-------------------------------------------------------------------------|
A#|-------------------------------------------------------------------------|
F#|-2--2-2-2--------------5--5-5-5------------------------------------------|
C#|-2--2-2-2---3--3-3-3---5--5-5-5---2--2-2-2-------------------------------|(x1 and a liiitle bit slower)
G#|-0--0-0-0---3--3-3-3---3--3-3-3---2--2-2-2-3-2-3-2-----------------------|
C#|------------3--3-3-3--------------2--2-2-2-------------------------------|


[Outro]

D#|-------------------------------------------------------|
A#|--------1-----------0-----------1-----------0----------|
F#|------2---2-------2---2-------0---0-------1---1--------|  (the first time with normal speed)
C#|----2-------2---0-------0---2-------2---2-------2------|  (the second time which is the last time 
G#|--0-----------------------3----------------------------|   at the last notes start playing it slower)
C#|--------------3-----------------------2----------------|

at the studio version it's this little thing at the ending 
D#|-------------------------------------------------------------------------|
A#|-------------10----------------------------------------------------------|
F#|---9--9------------------------------------------------------------------|
C#|-------------------------------------------------------------------------|
G#|-----7---7---------------------------------------------------------------|
C#|-------------------------------------------------------------------------|



************************************

| h  Hammer-on
| p  Pull-off
| b  Bend
| /  Slide up 

************************************

            
            
Suggest correction
Creating personal tab
Creating personal tab
You can edit any tab online and save it as your Personal.

You can edit, replace or remove any tab part or add personal notes – all changes will be seen only by you.

Personal tabs can be accessed anytime from any device, even offline.
Learn more »
Give kudos to tab author, rate the tab!
1 2 3 4 5
comments
print report bad tab
guest
You may want to rate the tab now too:
select rating
Wanna post a correction for this tab? Suggest correction