Oops, an error
Loading. Please wait.
We have an official Lonely Day tab made by UG professional guitarists. Check out the tab »
×
236,337 views 63 this week
11 commentsread comments
1 2 3 4 5
x 18
add to favorites
×
Save as Personal and add changes to this tab that will be seen only by you. Learn more ›
×
You can save this tab as Personal to edit and correct it or add notes. All changes will be seen only by you. Learn more »
launch autoscroll
font size
0
reset
how to read this tab
guitar tuner
backing track
0:00
0:00
edit
Autoscroll
slow
fast
+/-
esc
set tempo
stop
Author
-------------------------------------------------------------------------------
                             Lonely Day - Solo - System Of A Down
-------------------------------------------------------------------------------
Tabbed by: C.O.
Email: dezarteagle2003@yahoo.com

Tuning: Drop D down a half step (Db, Ab, Db, Gb, Bb, Eb)

e|--12------12---10---8-----7-----10---7---------10----------------------------|
B|--13------13---12---10---8------8----8---9----12-----------------------------|
G|-------------------------------------------------9---------------------------|
D|-----------------------------------------------------------------------------|
A|-----------------------------------------------------------------------------|
E|-----------------------------------------------------------------------------|

e|---------------10---------------12---------------13---------------15---------|
B|--13-12-13------13-12-13-----13-12-13------13-12-13--------------------------|
G|-----------------------------------------------------------------------------|
D|-----------------------------------------------------------------------------|
A|-----------------------------------------------------------------------------|
E|-----------------------------------------------------------------------------|

e|-17--15--13--15--13--12--13--12--10--12--10--9--9----------------------------|
B|-----------------------------------------------------------------------------|
G|-----------------------------------------------------------------------------|
D|-----------------------------------------------------------------------------|
A|-----------------------------------------------------------------------------|
E|-----------------------------------------------------------------------------|

e|-9-/-19-19-19-19-19-19-19--(play really fast)--------------------------------|
B|-----------------------------------------------------------------------------|
G|-----------------------------------------------------------------------------|
D|-----------------------------------------------------------------------------|
A|-----------------------------------------------------------------------------|
E|-----------------------------------------------------------------------------|

e|-19-17-16-17-16-14-16-14-----14----------------------------------------------|
B|-------------------------------------17----17-15-17-15-----15----------------|
G|--------------------------------------------------------------17-----17------|
D|-----------------------------------------------------------------------------|
A|-----------------------------------------------------------------------------|
E|-----------------------------------------------------------------------------|

e|-----------------------------------------------------------------------------|
B|-----------------------------------------------15-------------------15-------|
G|-16-17-16-14--16-14-14-16-17----17-16-14-16-17-----17-16---------------------|
D|-----------------------------------------------------------------------------|
A|-----------------------------------------------------------------------------|
E|-----------------------------------------------------------------------------|

e|-----------------------------------------------------------------------------|
B|----------------15----------------------------15------------------15---------|
D|-14-16-17----17----16-14-16-17----17-16-14-16----17----17-16-14--------------|
A|-----------------------------------------------------------------------------|
E|------------------------(reapeat til the end on the solo)--------------------|



************************************

| /  Slide up

************************************

            
            
Suggest correction
Creating personal tab
Creating personal tab
You can edit any tab online and save it as your Personal.

You can edit, replace or remove any tab part or add personal notes – all changes will be seen only by you.

Personal tabs can be accessed anytime from any device, even offline.
Learn more »
comments
print report bad tab
11 comments total. Showing first comments.
0 reply
The Pickle Man 30 Nov 25, 2005 06:53 AM

This is just wrong. Are you even listening to the right song?

0 reply
Towlie 95 Nov 25, 2005 10:29 AM

What song is this...? =X

0 reply
Fecker 10 Nov 26, 2005 12:24 AM

hah
its the solo guys
think before posting for once :P

guest
You may want to rate the tab now too:
select rating
Wanna post a correction for this tab? Suggest correction