Oops, an error
Loading. Please wait.
We have an official Lonely Day tab made by UG professional guitarists. Check out the tab »
×
80,963 views 174 this week
6 commentsread comments
1 2 3 4 5
x 45
add to favorites
launch autoscroll
font size
0
reset
how to read this tab
guitar tuner
backing track
0:00
0:00
×
Best way to learn
"Lonely Day"
Autoscroll
slow
fast
+/-
esc
set tempo
stop
-----------------------------------------------------------------------------

                          Lonely Day - System Of A Down

-----------------------------------------------------------------------------

Tabbed by:Den Alec

Email:alec_sterckx@hotmail.com


Tuning: normal !!!


I didn't made this tab becous there wern't anny good tabs but becous there wern't anny
tabs in normal tunig !

I know that System of a down don't use normal tunig but like me there are a lot of
System of a down fans who would like to play lonely day but without changing there tunig 
please
When rate this don't judge it on the tuning but on the tab itself !

ps:sorry for my english -> i'm 15j and dutch


play the whole song with a pick !

vers:
e|---------------------------------------------------------|
B|---------------------------------------------------------|
G|---------4-----------3-----------4-----------3-----------|
D|-------6---6-------6---6-------4---4-------5---5---------|   X8
A|-----6-------4---6-------4---6-------6---4-------4-------|
E|---4-----------0-----------7-----------0-----------------|
                                    here ^ I had to make an adjustment

                                                        (normally a D#)

chorus:
e|------------------------------|
B|------------------------------|
G|-----------------4--4---------|
D|---6--6---2--2---4--4---------|     X2
A|---6--6---2--2---2--2--6--6---|
E|---4--4---0--0---------6--6---|


vers:
e|---------------------------------------------------------|
B|---------------------------------------------------------|
G|---------4-----------3-----------4-----------3-----------|
D|-------6---6-------6---6-------4---4-------5---5---------|    X6
A|-----6-------4---6-------4---6-------6---4-------4-------|
E|---4-----------0-----------7-----------0-----------------|


bridge:
e|-------------------------------------------|
B|-------------------------------------------|
G|-------------------------------------------|
D|---2--2-2-2--1--1-1-1/4--4-4-4--6--6-6-6---|     X2
A|---2--2-2-2--1--1-1-1/4--4-4-4--6--6-6-6---|
E|---0--0-0-0--X--X-X-X/2--2-2-2--4--4-4-4---|


end bridge:
e|-----------------------------------------------------|
B|-----------------------------------------------------|
G|-----------------------------------------------------|
D|---2-2-2-2-2-2-2-2-2-2-2-2---------------------------|
A|---2-2-2-2-2-2-2-2-2-2-2-2-6-6-6-6-6-6-6-6-6-6-6-6---|
E|---0-0-0-0-0-0-0-0-0-0-0-0-6-6-6-6-6-6-6-6-6-6-6-6---|


I've just copied the solo from solo vers 2 but wrote it 1 tone lower so don't give me 
much credit for it

solo:
e|---11~--11~--11------------------------------------------------------11---|
B|----------------14-12-11--12-11---12-11-----14--12-11-12-14-12-11-12------|
G|-----------------------------------------12-----(faster)------------------|
D|--------------------------------------------------------------------------|
A|--------------------------------------------------------------------------|
E|--------------------------------------------------------------------------|


e|------------12-----------14--14/16-14-12-14-12-11-12-11----------11-11---|
B|---12-11-12-----12-11-12--------------------------------14-12-14---------|
G|-------------------------------------------------------------------------|
D|-------------------------------------------------------------------------|
A|-------------------------------------------------------------------------|
E|-------------------------------------------------------------------------|


e|--------------------------------------------------------------------------|
B|-21-21-21-21-21-21-21-21-21-21-21-21-21-21-21-19-19-21-17-17-19-16-16-17--|
G|-(really fast)------------------------------------------------------------|
D|--------------------------------------------------------------------------|
A|--------------------------------------------------------------------------|
E|--------------------------------------------------------------------------|

e|--------------------------------------------------------------------------------|
B|-14-14-16-12-12-14-11-11-12-9-9-11-11-12-12-11-11-14-14-12-11-12-12-14-12-11----|
G|--------------------------------------------------------------------------------|
D|--------------------------------------------------------------------------------|
A|--------------------------------------------------------------------------------|
E|--------------------------------------------------------------------------------|

e|-----------------------------------------------------|
B|---9-9-9-11-12-14-14-12-11-9-9-9-11-12-14-14-12-11---|
G|-----------------------------------------------------|
D|-----------------------------------------------------|
A|-----------------------------------------------------|
E|-----------------------------------------------------|
I don't know how many times but just play this until the end of the solo


during solo:
e|------------------------------|
B|------------------------------|
G|-----------------4--4---------|
D|---6--6---2--2---4--4---------|      X4
A|---6--6---2--2---2--2--6--6---|
E|---4--4---0--0---------6--6---|


chorus:

e|-------------------------------------|
B|-------------------------------------|
G|-----------------4--4----------------|
D|---6--6---2--2---4--4----------------|      X4
A|---6--6---2--2---2--2--6-6-6-666666--|
E|---4--4---0--0---------6-6-6-666666--|

outro:
e|---------------------------------------------------------|
B|---------------------------------------------------------|
G|---------4-----------3-----------4-----------3-----------|
D|-------6---6-------6---6-------4---4-------5---5---------|    X2
A|-----6-------4---6-------4---6-------6---4-------4-------|
E|---4-----------0-----------7-----------0-----------------|
 (slower)

breakdown:
e|-------------------|
B|---------------9---|
G|---9-----8---------|
D|-------------------|
A|------6-----6------|
E|-------------------|


I've worked really hard on this tab so please rate it (good ;) )


| /  slide up
| \  slide down
| h  hammer-on
| p  pull-off
| ~  vibrato
| +  harmonic
| x  Mute note

=============================================================================
Suggest correction
comments
print report bad tab
6 comments total. Showing first comments.
0 reply
afromonkeyR0X 393 Jan 16, 2008 11:29 AM

Yay first comment! This tab was ok I see you've put a lot of work into it. Nice solo, even though it's from another tab,
still nice job.

0 reply
420ismybday 10 Mar 06, 2009 06:38 AM

Kcik ass Tab! works good with the normal tuning. but there is one part thats a bit off by a little. but all-in-all its a kick-ass tab. shrweet-ness!

0 reply
Pedz221 10 May 28, 2009 12:11 PM

Thanks for doing this, I alway find it hard trying to think of a tab in a different tuning to what its written in (mainly for the solo), takes a lot of strain from my brain :P nice job.

guest
You may want to rate the tab now too:
select rating
Wanna post a correction for this tab? Suggest correction