Oops, an error
Loading. Please wait.
We have an official Lonely Day tab made by UG professional guitarists. Check out the tab »
×
5,543 views 24 this week
1 commentread comment
1 2 3 4 5
x 8
add to favorites
×
Save as Personal and add changes to this tab that will be seen only by you. Learn more ›
×
You can save this tab as Personal to edit and correct it or add notes. All changes will be seen only by you. Learn more »
launch autoscroll
font size
0
reset
guitar tuner
backing track
0:00
0:00
edit
Autoscroll
slow
fast
+/-
esc
set tempo
stop
Intro : guitar solo

Chorus :

Gb|-----------------------------------------------------|
Db|-----------------------------------------------------|
Ab|-0--0-0-0-0-----------3--3-3-3-3---------------------| (2x)
Eb|-----------1--1-1-1-1-----------0--0-0-0-0-----------|

(...)
The most loneliest day in my life
The most loneliest day in my life


Gb|----------------------------------------------------------|
Db|------------------------------------------------------2---|
Ab|-0--0---3--3---0--0---3--3---0--0---3--3---0--0---3-3-----|
Eb|-----1------0------1------0------1------0------1-------0--|

(...)
Such a lonely day
Shouldn't exist
It's a day that I'll never miss

Such a lonely day
And it's mine
The most loneliest day in my life

Gb|---------------------------------------------------|
Db|---------------------------------------------------|
Ab|---------------------------------------------------| (2x)
Eb|-1-1-1-1-1-0-0-0-0-0-3-3-3-3-3-5-5-5-3-------------|

Gb|---------------------------------------------------|
Db|-------------------------2-2-2-2-2-2-2-2-2-2-2-2---|
Ab|---------------------------------------------------|
Eb|-1-1-1-1-1-1-1-1-1-1-1-1---------------------------|

(...)
And if you go
I wanna go with you
And if you die
I wanna die with you

Take your hand
And walk away

Solo:
Gb|-----------------------------------------------------|
Db|-----------------------------------------------------|
Ab|-0--0-0-0-0-----------3--3-3-3-3---------------------| (2x)
Eb|-----------1--1-1-1-1-----------0--0-0-0-0-----------|

part 2:

Gb|---------------------------------------------------|
Db|---------------------------------9-9-9-9-9---------|
Ab|-0-0-0-0-0-----------3-3-3-3-5-7-------------------| (2x)
Eb|-----------1-1-1-1-1-------------------------------|

Gb|---------------------------------------------------|
Db|---------------------------------------------------|
Ab|-0-0-0-0-0-----------3-3-3-3-3---------------------| (2x)
Eb|-----------1-1-1-1-1-----------0-0-0-0-0-----------|

(...)
The most loneliest day in my life
The most loneliest day in my life
The most loneliest day in my life

End:

Gb|---------------------------------------------------|
Db|---------------------------------------------------|
Ab|-0---3---0---3---0---------------------------------|
Eb|---1---0---1---0-----------------------------------|

            
            
Suggest correction
Creating personal tab
Creating personal tab
You can edit any tab online and save it as your Personal.

You can edit, replace or remove any tab part or add personal notes – all changes will be seen only by you.

Personal tabs can be accessed anytime from any device, even offline.
Learn more »
comments
print report bad tab
1 comment total.
0 reply
RyanZilla 10 Nov 17, 2013 12:03 PM

Sounds perfect.

guest
Wanna post a correction for this tab? Suggest correction