Oops, an error
Loading. Please wait.

Lost In Hollywood bass

version 2
version 2
5,710 views 9 this week
no commentswrite comment
1 2 3 4 5
x 5
add to favorites
×
Save as Personal and add changes to this tab that will be seen only by you. Learn more ›
×
You can save this tab as Personal to edit and correct it or add notes. All changes will be seen only by you. Learn more »
launch autoscroll
font size
0
reset
guitar tuner
edit
Autoscroll
slow
fast
+/-
esc
set tempo
stop
    _____________________
   / System of a Down   /  I think this song is about Daron’s disgust for fame that
  / Lost In Hollywood  /  status and an achievement. It’s about how people are
 / Mezmerize          /  consumed and corrupted by the ideal of becoming famous.
/____________________/  The Hackensack-reference is an old saying, where Hackensack
                       means a dull town where there’s no point in being in. This
                      is of course pure sarcasm!

*******************************************************************************
*  Check out my Guitar Pro-version of the song, just follow the link:         *
*   http://www.ultimate-guitar.com/tabs/s/system_of_a_down/lost_in_hollywood_ver3_guitar_pro.htm
*                                                                             *
*******************************************************************************

Tuning: Drop C# (C# G# C# F#)


 Intro:
 4/4
 Q=77 bpm
Out, 4x2 bars.


 Verse:
Out, 6 bars.


 Verse:
Out 6 bars.



 Interlude:
  S S S S S S S S S S S S S S S S   S S S S S S S S S S S S S S S S
|---------------------------------|---------------------------------|
|-2-2-2-2-2-2-2-2-3-3-3-3-3-3-3-3/|-9-9-9-9-9-9-9-9-7-7-7-7-7-7-7-0-|
|---------------------------------|---------------------------------|
|---------------------------------|---------------------------------|

  S S S S S S S S S S S S S S S S    S  S  S  S  S  S  S  S S S S S S S S S
|---------------------------------|-----------------------------------------|
|-2-2-2-2-2-2-2-2-3-3-3-3-3-3-3-3/|-12-12-12-12-12-12-12-12\7-7-7-7-7-7-7-7-|
|---------------------------------|-----------------------------------------|
|---------------------------------|-----------------------------------------|




 Verse:
    G#m                        G#m
    Q    E  E  E  E  +S  E.    Q    E  E  E  E  +S  E.
||---------------------------|---------------------------||
||o--------------------------|--------------------------o||
||o--------------------------|--------------------------o||
||--7----7--7--7--7--(7)-7---|-7----7--7--7--7--(7)-7----||

   Bsus2                              D#
   Q    E.   S  +S   S  E   E   E     Q    E.   S  +S   S  E   E   E
|----------------------------------|----------------------------------|
|----------------------------------|----------------------------------|
|----------------------------------|----------------------------------|
|-10---10---10-(10)-10-10--10--10--|-14---14---14-(14)-14-14--14--14--|




 Verse:
Similar to previous.




 Chorus:
   B                                 F#
   Q    E.   S  +S   S  E   E   E    Q    E.  S +S  S E  E  E
|----------------------------------|---------------------------|
|----------------------------------|---------------------------|
|----------------------------------|---------------------------|
|-10---10---10-(10)-10-10--10--10--|-5----5---5-(5)-5-5--5--5--|

  G#m                         D#m        E
  Q    E.  S +S  S E  E  E    Q    E  E  Q    E  E   5x
|---------------------------|------------------------||
|---------------------------|-----------------------o||
|---------------------------|-----------------------o||
|-7----7---7-(7)-7-7--7--7--|-2----2--2--3----3--3---||




 Bridge:
    G#m      D#7/a#      C#m/e         D#
    H        H           Q.      S  S  H
||--------------------|-10------14--------------|
||o-7--------9--------|------------12-14--------|
||o-------------------|-------------------------|
||--------------------|-------------------------|

   C#m           G#m               D#7/a#
   Q.      S  S  Q.      +S   S    H         H         3x
|---------14--------------------|----------------------||
|-12---------14--------------12-|---------------------o||
|---------------12------(12)----|-14--------14--------o||
|-------------------------------|----------------------||




 Build-up Chorus:
Similar to previous, just only 2 rounds instead of 5.



 Chorus:
Similar to previous, just 4 rounds.



 Outro:
Out till end.



------------------------------------------------------------------------------
 3rd /June /08
 Just mail me at Maitinin@gmail.com with questions, comments and corrections!
------------------------------------------------------------------------------



 " Maitinin writing here - the author of this tab.

   The past 11 years, I have generated 10,318,000 views and 815 top-rated tabs for this site.
   If you want to support an eager contributor like me, check out my own site:


   _____  http://www.PlayLikeTheGreats.com  _____


   Here I will continue to upload and improve my transcriptions.

   Best regards,
   Maitinin

   July, 2015 "
Suggest correction
Creating personal tab
Creating personal tab
You can edit any tab online and save it as your Personal.

You can edit, replace or remove any tab part or add personal notes – all changes will be seen only by you.

Personal tabs can be accessed anytime from any device, even offline.
Learn more »
comments
print report bad tab
guest
You may want to rate the tab now too:
select rating
Wanna post a correction for this tab? Suggest correction