Oops, an error
Loading. Please wait.

Mind Bass

version 1
version 1

Whole song

Interactive

15,829 views 21 this week
3 commentsread comments
1 2 3 4 5
x 6
add to favorites
launch autoscroll
font size
0
reset
guitar tuner
backing track
0:00
0:00
×
Best way to learn
"Mind"
Autoscroll
slow
fast
+/-
esc
set tempo
stop
Author
Difficulty
Tuning
intermediate
C G C F
[Intro] 
[0:00]
F|---------------------------------|
C|---------------------------------|  (Repeat this 30 times)
G|-------------5-4-4/5-5/6-6-6-6-6-|
C|----0~~~~~~~~~~~~~~~~~~~~~~~~~~~-|

then play this 
[1:30]
F|--------------------------|
C|--------------------------|
G|--------------------------|  
C|--0-0~~~~~---0-0~~~~~~~~~~I 

the song slows down here and gets quiet for a few seconds... then

(play 2 times) 
[1:44]
F|-----------------------------------------------|
C|-----------------------------------------------|  
G|-----------------------------------------------|
C|--6h7-7-7-7-7---0-0-0------6h7-7-7-7-7---0-0-0-|  the open C's are played with the "Go Away" line

[Verse figure] 
[1:49]
F|--------------------------------------|
C|--------------------------------------|     (Play 5 times)
G|--------------------------------------|
C|-0--1-3--0--3-3-2-1--0--1-3--0--3-2-1-|

6th time on verse figure play this [2:23]
F|---------------------------------------------------|
C|---------------------------------------------------|
G|---------------------------------------------------|
C|--0--1-3--0--3-3-2-1-3-3--3-3--3-3--3-3-3--3-3-3-3-| 

this again 4 times [2;30]
F|--------------------------------------|
C|--------------------------------------|  
G|--------------------------------------|
C|-0--1-3--0--3-3-2-1--0--1-3--0--3-2-1-|

at the end of the fourth time let the 1st fret on the low C string ring [2:56]

(Then play this 4 times) 
[2:59]
F|--------------------------------|
C|--------------------------------|
G|--------------------------------|
C|---6--5-5-5-5--6--5-5-5-5--6-6--|

(next play this one time) (goes by kind of fast) 
[3:06]
F|----------------------------------------|
C|----------------------------------------|
G|------------------^-----^----^----------|  notes here with a carrot on top make
C|--6~~~~-6-6--6--6-6---6-6--6-6--6-6-6-6-|  quarter (1/4) bends

(Then play this 4 times)
[3:09]
F|-----------------------------|
C|-----------------------------|
G|-----------------------------|
C|--7--6-6-6-6--7--6-6-6-6-7-7-|

(Then play this again 2 times) 
[3:16]
F|-----------------------------------------------|
C|-----------------------------------------------|  
G|-----------------------------------------------|
C|--6h7-7-7-7-7---0-0-0------6h7-7-7-7-7---0-0-0-|

(Play this 2 times again) 
[3:21]
F|--------------------------------------|
C|--------------------------------------|   
G|--------------------------------------|
C|-0--1-3--0--3-3-2-1--0--1-3--0--3-2-1-|

(Then play this 3 times) 
[3:34]
F|-------------------|
C|-------------------|
G|-------------------|
C|--0--1-3--0---3-2--|

(on the fourth time play this) 
[3:45]
F|-------------------|
C|-------------------|
G|-------------------|
C|--0--1-3--0~~~~~~--|

(this again 3 times) 
[3:48]
F|-------------------|
C|-------------------|
G|-------------------|
C|--0--1-3--0---3-2--|

(and on the 4th time play) 
[3:59]
F|-------------------------|
C|-------------------------|
G|-------------------------|
C| -3-3---3-3--3-3---3-3-3-|  

(Again, play this 4 times) 
[4:02]
(and at the end of the 4th time let the 1st fret ring) 
[at 4:29]
F|--------------------------------------|
C|--------------------------------------|    
G|--------------------------------------|
C|-0--1-3--0--3-3-2-1--0--1-3--0--3-2-1-|

(Then play this 4 times again) 
[4:31]
F|--------------------------------|
C|--------------------------------|
G|--------------------------------|
C|---6--5-5-5-5--6--5-5-5-5--6-6--|

(then play this at) 
[4:38]
F|----------------------------------------|
C|----------------------------------------|
G|-------------^----^-----^----^----------|  notes here with a carrot on top make
C|--6~~~~-6-6--6--6-6---6-6--6-6--6-6-6-6-|  half bends this time 

(Then play this 8 times) 
[4:41]
F|---------------------------|
C|---------------------------|
G|---------------------------|
C|--7--6-6-6---7--6-6-6--7-7-|

(then play this 4 times) 
[4:55] 
(when the guitar palm mutes the riff)
F|---------------------------|
C|---------------------------|
G|---------------------------|
C|--7--6-7--6-7--6-6-7-6-7-7-|

(slow down and play this)
[5:01]
F|----------------------------------------|
C|----------------------------------------|
G|----------------------------------------|
C|--7-6--7-6--7-6--7-6--7-6--7-6--7-6~~~~-|
          
(Guitar break)
[5:09]

(then play this 8 times) 
[5:12]
F|--------------------------|
C|--------------------------|
G|--------------------------|
C|--7--6-6-6--7--6-6-6--7-7-|

(Then the outro played 4 times) 
[5:25]
F|-------------------7-7-6-6-5~~~~~-|
C|---------------------------0~~~~~-|
G|----------------------------------|  
C|-0~~~~~~~~~~~~~~~~~~~~~~~~~~~~~~~~|



************************************

| /  Slide up
| ~  Vibrato
| h  Hammer-on
|    
| ^  

************************************
Suggest correction
comments
print report bad tab
3 comments total.
0 reply
Kopperhead91 401 Sep 10, 2006 06:05 AM

this isnt right the part where he says "go away" is played

F-----------------------------
C-----------------------------
G-----------------------------
C--320-320-0-0-0-320-320-0-0-0 or something like that. i dont tab that way.
and the other part your close but it actually is

F----------------------------------------------------------
C----------------------------------------------------------
G----------------------------------------------------------
C-0~~~~1--3--0~~~~~~3-2-1-1-0~~~~~~~1--3--0~~~~~~~~~3-2-1~~

0 reply
Masterbasser36 651 Feb 11, 2007 06:43 PM

at the beginning, he doesn't slide, he bends

still a good tab though

0 reply
micas.sacim 10 Sep 11, 2016 07:52 PM

Love this, and the best part of it is tht is well explained!

guest
You may want to rate the tab now too:
select rating
Wanna post a correction for this tab? Suggest correction