Oops, an error
Loading. Please wait.

Mr Jack Bass Tab

version 2
version 2
18,888 views 42 this week
6 commentsread comments
1 2 3 4 5
x 15
add to favorites
launch autoscroll
font size
0
reset
guitar tuner
×
Best way to learn
"Mr Jack"
Autoscroll
slow
fast
+/-
esc
set tempo
stop
Title:     Hey Mr Jack
Band:      System Of A Down
Album:     Steal This Album
Tabbed By: LifeBandit
E-mail:    LifeBandit666@Hotmail.com

I`ve just got this album and I love this song. I thought it would be really hard
to tab System of a Down songs, but maybe I just picked an easy one... I believe
this is correct except for the really heavy bit. 
The Tuning is (from bottom to top) CGCF, standard System tuning. Enjoy.

Intro
F|------------------------------|
C|*----------------------------*|     X8
G|*----8\7-7\5-5-565-3-3-5-565-*|      
C|-0----------------------------|

Verse\Chorus (Hey Mr. Jack...)
F|------------------|
C|-----------------*|                 X36 (X8 verse, X4 Chorus)
G|-----------------*|                     (X8 Verse, X8 Chorus)
C|-0>-7>-3>-878(7)--|

Quiet Bit (7am, Morning...)
F|-----|               
C|*---*|                              X6
G|*---*| 
C|--0--| Guitar does intro, you do the lower C

(AT OUR, AT OUR HEADS)
F|------------------|
C|-----------------*|                 X8
G|-----------------*|
C|-0---7---3---88---|

Heavy Bit (Your Prospect Of Living Gone)          << Not sure here.
F|-------------------|                X8
C|*-----------------*|
G|*-----------------*|
C|--001-001-000-000--| <
            
                            
Suggest correction
comments
print report bad tab
6 comments total. Showing first comments.
-1 reply
Skit666 70 Jun 05, 2004 08:00 PM

Great except intro should be played like:

|---9-8-7-8--9--9-10-9---8--8---9--9---9--
|----------0--0---------0--0--0--0---0----
|-----------------------------------------
|-0---------------------------------------

;)

0 reply
Masterbasser36 651 Aug 08, 2006 01:27 PM

Very good except the "AT OUR HEADS" part is supposed to be the same as the verse/chorus

+1 reply
Masterbasser36 651 Aug 08, 2006 01:43 PM

Oops, my bad.

It's supposed to be the 8 played 3 times instead of 2

guest
You may want to rate the tab now too:
select rating
Wanna post a correction for this tab? Suggest correction