Oops, an error
Loading. Please wait.

Old School Hollywood tab

version 3
version 3

Whole song

5,557 views 1 this week
1 commentread comment
1 2 3 4 5
1 last vote to show rating
add to favorites
×
Save as Personal and add changes to this tab that will be seen only by you. Learn more ›
×
You can save this tab as Personal to edit and correct it or add notes. All changes will be seen only by you. Learn more »
launch autoscroll
font size
0
reset
how to read this tab
guitar tuner
edit
Autoscroll
slow
fast
+/-
esc
set tempo
stop
SONG: OLD SCHOOL HOLLYWOOD
BAND: SYSTEM OF A DOWN

Words and Music by Daron Malakian

Gtr I (Db Ab Db Gb Bb Eb) - 'Distorted'
Gtr II (Db Ab Db Gb Bb Eb) - 'Synth'
 Intro
  Q=168
  N.C.
 4/4
  Gtr II
                               3x                       4x
|--------------||--------------||-||--------------------||
|--------------||o------------o||-||o------------------o||
|--------------||--------------||-||--------------------||
|--------------||--------------||-||---0-5-7-5-8-5-7-5--||
|--------------||o------------o||-||o------------------o||
|-17\--/5------||--3--/5-------||-||--/5----------------||


    Gtr I
||------------------|------------------||
||o-----------------|-----------------o||
||------------------|------------------||
||------------------|------------------||
||o-0-5-7-5-8-5-7-5-|-0-5-7-5-8-5-7-5-o||
||--0-5-7-5-8-5-7-5-|-0-5-7-5-8-5-7-5--||
|
|   Gtr II
||------------------|------------------||
||o-----------------|-----------------o||
||------------------|------------------||
||--0-5-7-5-8-5-7-5-|-0-5-7-5-8-5-7-5--||
||o-----------------|-----------------o||
||------------------|------------------||


    PM------------------------------|
||------------------|-------------------||
||o-----------------|------------------o||
||------------------|-------------------||
||------------------|-------------------||
||o-0-5-7-5-8-5-7-5-|-0-5-7-5-8-5-7-5--o||
||--0-5-7-5-8-5-7-5-|-0-5-7-5-8-5-7-5---||
|
||------------------|-------------------||
||o-----------------|------------------o||
||------------------|-------------------||
||--0-5-7-5-8-5-7-5-|-0-5-7-5-8-5-7-5---||
||o-----------------|------------------o||
||------------------|-------------------||


 Verse
  Gtr I
   PM------------------------------------
|------------------|--------------------|
|------------------|--------------------|
|--0-5-7-5-8-5-7-5-|---0--5-7-5-8-5-7-5-|
|------------------|--------------------|
|------------------|--------------------|
|------------------|--------------------|
|
| Gtr II
|------------------|--------------------|
|-13---------------|-(13)---------------|
|------------------|--------------------|
|------------------|--------------------|
|------------------|--------------------|
|------------------|--------------------|


 -------------------------------------|
|------------------|---------------------|
|------------------|---------------------|
|------------------|---------------------|
|--0-5-7-5-8-5-7-5-|---0--5-7-5-8-5-7-5--|
|------------------|---------------------|
|------------------|---------------------|
|
|------------------|---------------------|
|------------------|---------------------|
|-12---------------|-(12)----------------|
|------------------|---------------------|
|------------------|---------------------|
|------------------|---------------------|


   PM------------------------------------
|------------------|--------------------|
|------------------|--------------------|
|--0-5-7-5-8-5-7-5-|---0--5-7-5-8-5-7-5-|
|------------------|--------------------|
|------------------|--------------------|
|------------------|--------------------|
|
|------------------|--------------------|
|-13---------------|-(13)---------------|
|------------------|--------------------|
|------------------|--------------------|
|------------------|--------------------|
|------------------|--------------------|


 ----------------|
|------------------|---------------------|
|------------------|---------------------|
|------------------|---------------------|
|--0-5-7-5-8-5-7-5-|---0--5-7-5-8-5-7-5--|
|------------------|---------------------|
|------------------|---------------------|
|
|------------------|---------------------|
|------------------|---------------------|
|-12---------------|-(12)----------------|
|------------------|---------------------|
|------------------|---------------------|
|------------------|---------------------|


 Prechorus
  N.C.
  Gtrs I, II
|-----------------|-----------------|
|-----------------|-----------------|
|-----------------|-----------------|
|-8-8-8-8-8-8-8-8-|-7-7-7-7-7-7-7-7-|
|-----------------|-----------------|
|-----------------|-----------------|


|-----------------|--------------------------|
|-----------------|--------------------------|
|-----------------|--------------------------|
|-8-8-8-8-8-8-8-8-|-10-10-10-10-10-10-10-10--|
|-----------------|--------------------------|
|-----------------|--------------------------|


  Gtr II
|-----------------|-----------------|-----------------|
|-----------------|-----------------|-----------------|
|-7-7-7-7-7-7-7-7-|-7-7-7-7-7-7-7-7-|-7-7-7-7-7-7-7-7-|
|-----------------|-----------------|-----------------|
|-----------------|-----------------|-----------------|
|-----------------|-----------------|-----------------|
|
| Gtr I
|-----------------|-----------------|-----------------|
|-----------------|-----------------|-----------------|
|-----------------|-----------------|-----------------|
|-8-8-8-8-8-8-8-8-|-7-7-7-7-7-7-7-7-|-8-8-8-8-8-8-8-8-|
|-----------------|-----------------|-----------------|
|-----------------|-----------------|-----------------|


                                           To Coda
  C5
|-------------------------|----------------------------|
|-------------------------|-/13------------------------|
|-12-12-12-12-12-12-12-12-|--12-12-12-12-12-12-12-12---|
|-------------------------|----------------------------|
|-------------------------|----------------------------|
|-------------------------|----------------------------|
|
|-------------------------|----------------------------|
|-------------------------|----------------------------|
|-------------------------|----------------------------|
|-10-10-10-10-10-10-10-10-|--10-10-10-10-10-10-10-10---|
|-------------------------|----------------------------|
|-------------------------|----------------------------|


 Chorus
  Gtr I
|-----------------|-----------------|--------------|--------------|
|-----------------|-----------------|--------------|--------------|
|-----------------|-----------------|--------------|--------------|
|-----------------|-----------------|-1--1---------|-0--0---------|
|-0-5-7-5-8-5-7-5-|-0-5-7-5-8-7-5-3-|-1--1--/5--3--|-0--0--4--7---|
|-0-5-7-5-8-5-7-5-|-0-5-7-5-8-7-5-3-|-1--1---------|-0--0--4--7---|


                                                    D.S. al Coda
|-----------------|-----------------|--------------|--------------|
|-----------------|-----------------|--------------|--------------|
|-----------------|-----------------|--------------|--------------|
|-----------------|-----------------|-1--1---------|-0--0---------|
|-0-5-7-5-8-5-7-5-|-0-5-7-5-8-7-5-3-|-1--1--/5--3--|-0--0--4--7---|
|-0-5-7-5-8-5-7-5-|-0-5-7-5-8-7-5-3-|-1--1---------|-0--0--4--7---|


                            Chorus

  Gtr II
|--------------------------|-----------------|-----------------|
|-/13----------------------|-----------------|-----------------|
|--12-12-12-12-12-12-12-12-|-----------------|-----------------|
|--------------------------|-----------------|-----------------|
|--------------------------|-----------------|-----------------|
|--------------------------|-----------------|-----------------|
|
| Gtr I
|--------------------------|-----------------|-----------------|
|--------------------------|-----------------|-----------------|
|--------------------------|-----------------|-----------------|
|--10-10-10-10-10-10-10-10-|-----------------|-----------------|
|--------------------------|-0-5-7-5-8-5-7-5-|-0-5-7-5-8-5-7-5-|
|--------------------------|-0-5-7-5-8-5-7-5-|-0-5-7-5-8-5-7-5-|


   Gtr I
||------------------|-----------------|--------------|--------------||
||o-----------------|-----------------|--------------|-------------o||
||------------------|-----------------|--------------|--------------||
||------------------|-----------------|-1--1---------|-0--0---------||
||o-0-5-7-5-8-5-7-5-|-0-5-7-5-8-7-5-3-|-1--1--/5--3--|-0--0--4--7--o||
||--0-5-7-5-8-5-7-5-|-0-5-7-5-8-7-5-3-|-1--1---------|-0--0--4--7---||


 Breakdown

  Gtr II
                               7x                      4x
|--------------||--------------||-||-------------------||----------------|
|--------------||o------------o||-||o-----------------o||----------------|
|--------------||--------------||-||-------------------||----------------|
|--------------||--------------||-||---0--7-5-8-5-7-5--||--0--7-5-8-7-5--|
|--------------||o------------o||-||o-----------------o||----------------|
|-17\--/5------||--3--/5-------||-||--/5---------------||-/5-------------|


|----------------|----------------|----------------|
|----------------|----------------|----------------|
|----------------|----------------|----------------|
|--0--7-5-8-7-5--|--0--7-5-8-7-5--|--8-7-5--8-7-5--|
|----------------|----------------|----------------|
|-/5-------------|-/5-------------|-/5-------------|


 Prechorus

|----------|----------|----------|-------|
|----------|----------|----------|-------|
|----------|----------|----------|-------|
|-8--------|-7--------|-8--------|-10----|
|----------|----------|----------|-------|
|----------|----------|----------|-------|

                                                          3x
|----------|----------|----------|------------||----------||
|----------|----------|----------|------------||o-/13----o||
|-7--------|-7--------|-7--------|-/12--------||---12-----||
|-8--------|-7--------|-8--------|--10--------||---10-----||
|----------|----------|----------|------------||o--------o||
|----------|----------|----------|------------||----------||


   Chorus
    Gtr I
                     3x
||-------------------||-----------------|--------------|-------------|
||o-----------------o||-----------------|--------------|-------------|
||-------------------||-----------------|--------------|-------------|
||-------------------||-----------------|-1--1---------|-0--0--------|
||o-0-5-7-5-8-5-7-5-o||-0-5-7-5-8-7-5-3-|-1--1--/5--3--|-0--0--4--7--|
||--0-5-7-5-8-5-7-5--||-0-5-7-5-8-7-5-3-|-1--1---------|-0--0--4--7--|


|-----------------|-----------------|--------------|--------------|
|-----------------|-----------------|--------------|--------------|
|-----------------|-----------------|--------------|--------------|
|-----------------|-----------------|-1--1---------|-0--0---------|
|-0-5-7-5-8-5-7-5-|-0-5-7-5-8-7-5-3-|-1--1--/5--3--|-0--0--4--7---|
|-0-5-7-5-8-5-7-5-|-0-5-7-5-8-7-5-3-|-1--1---------|-0--0--4--7---|


   Outtro

    PM--------------------------------------------------------------|
||----------------------------------|---------------------------------|
||o---------------------------------|---------------------------------|
||----------------------------------|---------------------------------|
||----------------------------------|---------------------------------|
||o---------------------------------|---------------------------------|
||--0-0-5-5-7-7-5-5-8-8-5-5-7-7-5-5-|-0-0-5-5-7-7-5-5-8-8-7-7-5-5-3-3-|


  Eb5   N.C.     D5    F#5A5
|--------------|--------------||-----*|
|--------------|-------------o||-----*|
|--------------|--------------||-----*|
|-1--1---------|-0--0---------||-----*|
|-1--1--/5--3--|-0--0--4--7--o||-----*|
|-1--1---------|-0--0--4--7---||-----*|
Suggest correction
Creating personal tab
Creating personal tab
You can edit any tab online and save it as your Personal.

You can edit, replace or remove any tab part or add personal notes – all changes will be seen only by you.

Personal tabs can be accessed anytime from any device, even offline.
Learn more »
Give kudos to tab author, rate the tab!
1 2 3 4 5
comments
print report bad tab
1 comment total.
0 reply
Thegargoylevine 30 Jun 23, 2008 05:41 PM

Awsome!

guest
You may want to rate the tab now too:
select rating
Wanna post a correction for this tab? Suggest correction