Oops, an error
Loading. Please wait.

Pig tab

version 2
version 2

Whole song

574 views 1 this week
2 commentsread comments
1 2 3 4 5
x 4
add to favorites
×
Save as Personal and add changes to this tab that will be seen only by you. Learn more ›
×
You can save this tab as Personal to edit and correct it or add notes. All changes will be seen only by you. Learn more »
launch autoscroll
font size
0
reset
how to read this tab
guitar tuner
edit
Autoscroll
slow
fast
+/-
esc
set tempo
stop
-----------------------------------------------------------------------------
                             P.I.G. - System of a Down
-----------------------------------------------------------------------------
Tabbed by: Vil Blackrose

Tuning: Drop B (Drop C but really not well tuned, if played in drop B, it sounds 
more like the actual song)

Guitars:
Guitar I (High distortion)
[B,F#,B,E,G#,C#]

Guitar II (Solo, low distortion)
[B,F#,B,E,G#,C#]

Bass
[B,F#,B,E]


/=slides
h=hammer-on
p=pull-off
.=palm mute
~= If it's a single note, vibrato, if it's a power chord, let ring.

Play it with the song, or else, it's going to sound terrible to your poor ears.

INTRO!

C#|------------------------------------------------|
G#|------------------------------------------------|
E |------------------------------------------------|
B |------------------------------------------------| X2
F#|---------------(Jingles)--------------(Jingles)-|
B |-1-000--1-000-------------0-0-0-0-0-0-----------|
    . ...  . ...             . . . . . .


Verse (if you can call it like that)X3
C#|-------------------------------------------------|
G#|-------------------------------------------------|
E |-------------------------------------------------|
B |-------------------------------------------------|
F#|-------------------------------------------------|
B |-1-000-1-000-0-0-0-0-0-0--1-000-1-000-0-0-0-0-0-0|
    . ... . ... . . . . . .  . ... . ... . . . . . .

C#|----------------------------------------------|
G#|----------------------------------------------|
E |----------------------------------------------|
B |-------------------------------------------0-0|
F#|---------------------------------------0-0-0-0|
B |-1-000-1-000-0-0-0-0-0-0--1-000-1-000--0-0-0-0|
    . ... . ... . . . . . .  . ... . ...  . . . 
Chorus
C#|----------------------------------------------------------------------|
G#|----------------------------------------------------------------------|
E |----------------------------------------------------------------------|
B |-------0----------8~-------0----------6~-------0--------0-4~--0-0-0-3-|
F#|-0-0-0-0--0-0-0-0-8~-0-0-0-0--0-0-0-0-6~-0-0-0-0--0-0-0-0-4~--0-0-0-3-|
B |-0-0-0-0--0-0-0-0-8~-0-0-0-0--0-0-0-0-6~-0-0-0-0--0-0-0-0-4~--0-0-0-3-|
    . . .    . . . .    . . .    . . . .    . . .    . . . .    


Verse X3
C#|-------------------------------------------------|
G#|-------------------------------------------------|
E |-------------------------------------------------|
B |-------------------------------------------------|
F#|-------------------------------------------------|
B |-1-000-1-000-0-0-0-0-0-0--1-000-1-000-0-0-0-0-0-0|
    . ... . ... . . . . . .  . ... . ... . . . . . .

C#|----------------------------------------------|
G#|----------------------------------------------|
E |----------------------------------------------|
B |-------------------------------------------0-0|
F#|---------------------------------------0-0-0-0|
B |-1-000-1-000-0-0-0-0-0-0--1-000-1-000--0-0-0-0|
    . ... . ... . . . . . .  . ... . ...  . . . 

Chorus
C#|----------------------------------------------------------------------|
G#|----------------------------------------------------------------------|
E |----------------------------------------------------------------------|
B |-------0----------8~-------0----------6~-------0--------0-4~--0-0-0-3-|
F#|-0-0-0-0--0-0-0-0-8~-0-0-0-0--0-0-0-0-6~-0-0-0-0--0-0-0-0-4~--0-0-0-3-|
B |-0-0-0-0--0-0-0-0-8~-0-0-0-0--0-0-0-0-6~-0-0-0-0--0-0-0-0-4~--0-0-0-3-|
    . . .    . . . .    . . .    . . . .    . . .    . . . .    




SOLO!!!

 Bass Part Through the solo
E |------------------------------------------|
B |------------------------------------------|
F#|--8\7---7\5--5--5-5/6p5--3--3--3/5~--5--5-|
B |-0--0--0----0--0--------0--0--0-----0--0--|


This is like extreme legato, try not to pick to much!

C#|-3-2~~(2)----2-3-3/5~~--5-7-7/8~~-7-8-10\8--7-7h8p7-7\5p3\2~~-|
G#|------(3)-----------------------------------------------------|
E |------(2)-----------------------------------------------------|
B |------(0)-----------------------------------------------------|
F#|--------------------------------------------------------------|
B |--------------------------------------------------------------|


Fucking FAST! (Altern picking)

C#|-------------------12-14-15~~-14--12-------|
G#|----------12-13-15--------------------11~~-|
E |-11-12-14----------------------------------|
B |-------------------------------------------|
F#|-------------------------------------------|
B |-------------------------------------------|

OK, you can play normally again here.

C#|-----------------------------------|
G#|-13-15-15b17r15~~-13h15b17r15~~----|
E |-----------------------------------|
B |-----------------------------------|
F#|-----------------------------------|
B |-----------------------------------|


C#|----14-15-17-15-14-14h15p14----14-15-17-15-14-14h15p14----14-15-17-15-14-14h15p14---|
G#|-17-------------------------17-------------------------17-------------------------17|
E |------------------------------------------------------------------------------------|
B |------------------------------------------------------------------------------------|
F#|------------------------------------------------------------------------------------|
B |------------------------------------------------------------------------------------|

C#|-------14-15-14h15p14----14-15-17-|
G#|-15-17----------------17----------|
E |----------------------------------|
B |----------------------------------|
F#|----------------------------------|
B |----------------------------------|

C#|-17b18r17-|
G#|----------|
E |----------|
B |----------| X40
F#|----------|
B |----------|


:D Enjoy, Comment if you think something is wrong

            
            
Suggest correction
Creating personal tab
Creating personal tab
You can edit any tab online and save it as your Personal.

You can edit, replace or remove any tab part or add personal notes – all changes will be seen only by you.

Personal tabs can be accessed anytime from any device, even offline.
Learn more »
comments
print report bad tab
2 comments total.
0 reply
Biskizz 41 Dec 30, 2011 04:30 AM

Great tab! Thank you!

0 reply
Biskizz 41 Dec 30, 2011 04:39 AM

Maybe the bass part would sound better so:

F#---8/7--7/5--5---5---5-6h-5---3---3---5h---5h---5h-6h-5
B--0----0----0---0---0--------0---0---0---0-0-------

guest
You may want to rate the tab now too:
select rating
Wanna post a correction for this tab? Suggest correction