Oops, an error
Loading. Please wait.
We have an official Prison Song tab made by UG professional guitarists. Check out the tab »
×
16,708 views 39 this week
4 commentsread comments
1 2 3 4 5
x 21
add to favorites
×
Save as Personal and add changes to this tab that will be seen only by you. Learn more ›
×
You can save this tab as Personal to edit and correct it or add notes. All changes will be seen only by you. Learn more »
launch autoscroll
font size
0
reset
guitar tuner
backing track
0:00
0:00
edit
Autoscroll
slow
fast
+/-
esc
set tempo
stop
***********************
 PRISON SONG
***********************

-tabbed by "ZERO83" - PLEASE RATE!!! =)
-I made this tab because all the others were wrong.
-Also VISIT MY BAND at: www.youtube.com/user/ZEROSYSTEMband/videos

 0:00
F|----------------------------------|
C|----------------------------------|
G|----------------------------------|
C|-0--------------------------------|

 0:04
F|----------------------------------|
C|----------------------------------|
G|-----------------------------1111-|
C|-0-1-3-1-0-1-3-1-0-1-3-1-0-1------| "They try to build a prison..."

 0:12
F|----------------------------------|
C|----------------------------------|
G|-----------------------------1111-|
C|-0-1-3-1-0-1-3-1-0-1-3-1-0-1------| "They try to build a prison..."

 0:21
F|----------------------------------|----------------------------------|
C|----------------------------------|----------------------------------|
G|----------------------------------|-----------------------------1111-|
C|-0-1-3-1-0-1-3-1-0-1-3-1----------|----------------------------------|
 
 0:27 2x                              
F|----------------------------------|
C|----------------------------------|
G|----------------------------1111--|
C|-0103010-0103010-0103010-010------|

 0:36                                0:41 
F|----------------------------------|----------------------------------|
C|----------------------------------|----------------------------------|
G|-----------------------------1111-|----------------------------1111--|
C|-0-1-3-1-0-1-3-1-0-1-3-1-0-1------|0103010-0103010-0103010-010-------|

 0:45 2x
F|----------------------------------|
C|----------------------------------|
G|-55655565556585655565556555658565-|
C|----------------------------------|

 0:55                                0:59  
F|----------------------------------|----------------------------------|
C|----------------------------------|----------------------------------|
G|-5---6---5-6-8-6-5---6---5-6-8-5--|-55655565556585655565556555651111-|
C|----------------------------------|----------------------------------|

 1:04 2x
F|----------------------------------|
C|----------------------------------|
G|----------------------------1111--|
C|-0103010-0103010-0103010-010------|

 1:13 2x
F|----------------------------------|
C|----------------------------------|
G|-55655565556585--55655565556585---|
C|----------------------------------|

 1:23                                1:28  
F|----------------------------------|----------------------------------|
C|----------------------------------|----------------------------------|
G|-5---6---5-6-8-6-5---6---5-6-8-5--|-55655565556585655565556555651111-|
C|----------------------------------|----------------------------------|

 1:33 2x
F|----------------------------------|
C|----------------------------------|
G|----------------------------1111--|
C|-0103010-0103010-0103010-010------|

 1:43                                1:48 
F|----------------------------------|----------------------------------|
C|----------------------------------|----------------------------------|
G|-----------------------------1111-|----------------------------1~----|
C|-0-1-3-1-0-1-3-1-0-1-3-1-0-1------|-0103010-0103010-0103010-010------|

 1:57 2x
F|----------------------------------|
C|----------------------------------|
G|----------------------------------|
C|-0-0-0-0-0-0-0-0-0-0-0-0-0-0-8888-|

 2:07 4x
F|----------------------------------|
C|----------------------------------|
G|----------------------------------|
C|-0-0----00-0----00-0----00-0-8888-|

 2:27 2x
F|---------------------------------------------|
C|---------------------------------------------|
G|-5---6---5-6p5-8p5-6p5-5---6---5-6p5-8p5-6p5-|<-Pull offs!
C|---------------------------------------------|

 2:37                               2:42  
F|----------------------------------|----------------------------------|
C|----------------------------------|----------------------------------|
G|-55655565556585655565556555658565-|-55655565556585655565556555651111-|
C|----------------------------------|----------------------------------|

 2:46 2x
F|----------------------------------|
C|----------------------------------|
G|----------------------------1111--|
C|-0103010-0103010-0103010-010------|

 2:56                                3:01
F|----------------------------------|----------------------------------|
C|----------------------------------|----------------------------------|
G|-----------------------------1111-|----------------------------1~----|
C|-0-1-3-1-0-1-3-1-0-1-3-1-0-1------|-0103010-0103010-0103010-010------|

 3:13
F|----------------------------------|
C|----------------------------------|
G|----------------------------------|
C|-0~-------------------------------|



************************************

| ~  Vibrato
| p  Pull-off

************************************

            
            
Suggest correction
Creating personal tab
Creating personal tab
You can edit any tab online and save it as your Personal.

You can edit, replace or remove any tab part or add personal notes – all changes will be seen only by you.

Personal tabs can be accessed anytime from any device, even offline.
Learn more »
comments
print report bad tab
4 comments total. Showing first comments.
+1 reply
scorpionx 51 Oct 11, 2010 07:41 AM

Awesome! Perfect!

+1 reply
zero83 848 Oct 13, 2010 09:29 AM

@scorpionx: Thank you! Finally someone noticed it! ;D

+2 reply
Tanner Streeter 324 Apr 11, 2013 06:13 PM

This song is so goddamn fun to play, thank you for tabbing this.

guest
You may want to rate the tab now too:
select rating
Wanna post a correction for this tab? Suggest correction