Oops, an error
Loading. Please wait.

Prison Song Tab

version 7
version 7
1,358 views 3 this week
no commentswrite comment
1 2 3 4 5
please rate
add to favorites
launch autoscroll
font size
0
reset
how to read this tab
guitar tuner
Autoscroll
slow
fast
+/-
esc
set tempo
stop
Help us to improve Ultimate-Guitar.com Take our survey!
×
Difficulty
Tuning
novice
C G C F A D
Prison song tab by SOAD

Tabbed by thiscomposer
(Mail me at thiscomposer@mail.ru)

Tuning : DAFCGC

Tablature legend
=================
<>-harmonics
*-palm mute
~-let note ring


Intro(palm muted)
  X1    /         X3(on 3rd time - pause here)
|-------|--------------------------------/--------|
|-------|-------------------------------/---------|
|-------|------------------------------/----------|
|-------|-----------------------------v-----------|
|-0-----|-0-1-3-1-0-1-3-1-0-1-3-1-0-1--8-8-8-8----|
|-0-----|-0-1-3-1-0-1-3-1-0-1-3-1-0-1--8-8-8-8----|



Chorus 1st part X2(palm muted)

|-------------------------------------------------------------|
|-------------------------------------------------------------|
|-------------------------------------------------------------|
|-------------------------------------------------------------|
|-0-1-0-3-0-1-0--0-1-0-3-0-1-0--0-1-0-3-0-1-0--0-1-0--8-8-8-8-|
|-0-1-0-3-0-1-0--0-1-0-3-0-1-0--0-1-0-3-0-1-0--0-1-0--8-8-8-8-|


Chorus 2nd part X1(palm muted)
|-----------------------------------------|
|-----------------------------------------|
|-----------------------------------------|
|-----------------------------------------|
|-0-1-3-1-0-1-3-1-0-1-3-1-0-1--8-8-8-8----|
|-0-1-3-1-0-1-3-1-0-1-3-1-0-1--8-8-8-8----|



Chorus 1st part X1(palm muted)

|-------------------------------------------------------------|
|-------------------------------------------------------------|
|-------------------------------------------------------------|
|-------------------------------------------------------------|
|-0-1-0-3-0-1-0--0-1-0-3-0-1-0--0-1-0-3-0-1-0--0-1-0--8-8-8-8-|
|-0-1-0-3-0-1-0--0-1-0-3-0-1-0--0-1-0-3-0-1-0--0-1-0--8-8-8-8-|


Verse riff X8-pause-X7(sometimes Daron plays <8> on string up)

|-------------|
|-------------|
|-------------|
|-----<8>-----|
|-<6>-----<6>-|
|-------------|


Pre-chorus(palm muted)X1

|---------------|
|---------------|
|---------------|
|---8---8---8---|
|-6---6---6---6-|
|---------------|


Chorus 1st part X2(palm muted)

|-------------------------------------------------------------|
|-------------------------------------------------------------|
|-------------------------------------------------------------|
|-------------------------------------------------------------|
|-0-1-0-3-0-1-0--0-1-0-3-0-1-0--0-1-0-3-0-1-0--0-1-0--8-8-8-8-|
|-0-1-0-3-0-1-0--0-1-0-3-0-1-0--0-1-0-3-0-1-0--0-1-0--8-8-8-8-|



Verse riff X8-pause-X7(Daron often plays <8> on string up)

|-------------|
|-------------|
|-------------|
|-----<8>-----|
|-<6>-----<6>-|
|-------------|


Pre-chorus(palm muted)X1

|---------------|
|---------------|
|---------------|
|---8---8---8---|
|-6---6---6---6-|
|---------------|


Chorus 1st part X2(palm muted)

|-------------------------------------------------------------|
|-------------------------------------------------------------|
|-------------------------------------------------------------|
|-------------------------------------------------------------|
|-0-1-0-3-0-1-0--0-1-0-3-0-1-0--0-1-0-3-0-1-0--0-1-0--8-8-8-8-|
|-0-1-0-3-0-1-0--0-1-0-3-0-1-0--0-1-0-3-0-1-0--0-1-0--8-8-8-8-|



Chorus 2nd part X1(palm muted)
|-----------------------------------------|
|-----------------------------------------|
|-----------------------------------------|
|-----------------------------------------|
|-0-1-3-1-0-1-3-1-0-1-3-1-0-1--8-8-8-8----|
|-0-1-3-1-0-1-3-1-0-1-3-1-0-1--8-8-8-8----|



Chorus 1st advanced part X1
                                                       \ (acoustic guitar) /
|--------------------------------------------------------------------------|
|----------------------------------------------------------3-----------2---|
|--------------------------------------------------------3---3-------2---2-|
|--------------------------------------------------------------3-6-5-------|
|-0-1-0-3-0-1-0--0-1-0-3-0-1-0--0-1-0-3-0-1-0--0-1-0--8--------------------|
|-0-1-0-3-0-1-0--0-1-0-3-0-1-0--0-1-0-3-0-1-0--0-1-0--8--------------------|
  * * * * * * *  * * * * * * *  * * * * * * *  * * *  * 



Interlude 1st part X2

|--------------------------------------|
|--------------------------------------|
|--------------------------------------|
|--------------------------------------|
|------------------------------8-8-8-8-|
|-0-0-0-0-0-0-0-0-0-0-0-0-0-0--8-8-8-8-|
                               * * * *


Interlude 2nd part(palm muted)X4

|---------------------------------------|
|---------------------------------------|
|---------------------------------------|
|---------------------------------------|
|-0-0---0-0-0---0-0-0---0-0--0--8-8-8-8-|
|-0-0---0-0-0---0-0-0---0-0--0--8-8-8-8-|



Verse riff X3(sometimes Daron plays <8> on string up)

|-------------|
|-------------|
|-------------|
|-----<8>-----|
|-<6>-----<6>-|
|-------------|


Pre-chorus(palm muted)X1

|---------------|
|---------------|
|---------------|
|---8---8---8---|
|-6---6---6---6-|
|---------------|


Chorus 1st part X2(palm muted)

|-------------------------------------------------------------|
|-------------------------------------------------------------|
|-------------------------------------------------------------|
|-------------------------------------------------------------|
|-0-1-0-3-0-1-0--0-1-0-3-0-1-0--0-1-0-3-0-1-0--0-1-0--8-8-8-8-|
|-0-1-0-3-0-1-0--0-1-0-3-0-1-0--0-1-0-3-0-1-0--0-1-0--8-8-8-8-|



Chorus 2nd part X1(palm muted)
|-----------------------------------------|
|-----------------------------------------|
|-----------------------------------------|
|-----------------------------------------|
|-0-1-3-1-0-1-3-1-0-1-3-1-0-1--8-8-8-8----|
|-0-1-3-1-0-1-3-1-0-1-3-1-0-1--8-8-8-8----|



Chorus 1st advanced part X1
                                                       \   (clean guitar)  /
|--------------------------------------------------------------------------|
|----------------------------------------------------------3-----------2---|
|--------------------------------------------------------3---3-------2---2-|
|--------------------------------------------------------------3-6-5-------|
|-0-1-0-3-0-1-0--0-1-0-3-0-1-0--0-1-0-3-0-1-0--0-1-0--8--------------------|
|-0-1-0-3-0-1-0--0-1-0-3-0-1-0--0-1-0-3-0-1-0--0-1-0--8--------------------|
  * * * * * * *  * * * * * * *  * * * * * * *  * * *  *


Outro(clean)X1

|----2~~~~~~~~-|
|---2~~~~~~~~~-|
|--2~~~~~~~~~~-|
|-2~~~~~~~~~~~-|
|--------------|
|--------------|
Suggest correction
What's this?
You can suggest a correction to this tab. Community and Mods will review your correction and vote to approve or reject it.
comments
We did not receive enough feedback on this tab! Please rate:
print report bad tab
1 2 3 4 5
guest
You may want to rate the tab now too:
select rating
Please do not post tabs as comments. Select "correction" instead!