Oops, an error
Loading. Please wait.

Psycho Live Tab

19,162 views 51 this week
2 commentsread comments
1 2 3 4 5
excellent!
x 4
add to favorites
launch autoscroll
font size
0
reset
how to read this tab
guitar tuner
Autoscroll
slow
fast
+/-
esc
set tempo
stop
Help us to improve Ultimate-Guitar.com Take our survey!
×
This is one of the best live solos from the song Psycho. This is my first tab so comment 
email if any questions. Have fun learning and playing.

-----------------------------------------|
-12---9-10-13-----12-13-12-10------------|
-----------------------------------------|
-----------------------------------------|
-----------------------------------------|
-----------------------------------------|


-----------------------------------------|
-10----12----10-9-----9-10-12-----10-12--|
-----------------------------------------|
-----------------------------------------|
-----------------------------------------|
-----------------------------------------|

-------12--------------------------------|
-10-12-----12-12-13-12-10----------------|
-----------------------------------------|
-----------------------------------------|
-----------------------------------------|
-----------------------------------------|


------------------------------------------|
-10-12---10-9--9-9-10-9-9-10-12-10-9-10-9-|
------------------------------------------|
------------------------------------------|
------------------------------------------|
------------------------------------------|

---0--0--0--0--0--0--0--0--0--0--0--0----|
-12-12-12-12-12-12-10-12-13-13-13-13-----|
-----------------------------------------|
-----------------------------------------|
-----------------------------------------|
-----------------------------------------|


---0--0--0--0--0--0--0--0--0--0-0--------|
-12-13-12-10-10-10-10-12-12-10-9---------|
-----------------------------------------|
-----------------------------------------|
-----------------------------------------|
-----------------------------------------|


--------0--0--0--0--0--0--0--0-----------|
-9-10-12-12-12-12-12-12-10-12------------|
-----------------------------------------|
-----------------------------------------|
-----------------------------------------|
-----------------------------------------|


---0--0--0--0--0--0--0---------------0---|
-15-15-15-13-13-13-12-10-10-10-12-10-9---|
-----------------------------------------|
-----------------------------------------|
-----------------------------------------|
-----------------------------------------|


-------------------------------|
----9-9-9-9-9-9-9-9------------|
-------------------------------|
-------------------------------|
-------------------------------|
-------------------------------|

------------------------------------------------|
--9-9-12-12-13-13-15-15-13-12-13-15-13-12-13-15-|
------------------------------------------------|
------------------------------------------------|
------------------------------------------------|
------------------------------------------------|

--------------------------------------------------|
--13-12-13-15-13-12-13-15-13-12-13-15-13-12-13-15-|
--------------------------------------------------|
--------------------------------------------------|
--------------------------------------------------|
--------------------------------------------------|

--------------------------------------------------|
--13-12-13-15-13-12-13-15-13-12-13-15-13-12-13-15-|
--------------------------------------------------|
--------------------------------------------------|
--------------------------------------------------|
--------------------------------------------------|

--------------------------12-12-12-12-13-15-15-15-|
--13-12-13-15-13-12-13-15-------------------------|
--------------------------------------------------|
--------------------------------------------------|
--------------------------------------------------|
--------------------------------------------------|

--13-12-13-12-13-12-13-12-13-12-13-12-10-12-10-8-|
-------------------------------------------------|
-------------------------------------------------|
-------------------------------------------------|
-------------------------------------------------|
-------------------------------------------------|

--10-8-10-8-10-8-10-8-8-8-8-7-10-8-|--7h8p7-5-7-8--8--8--8--8--|
-----------------------------------|---------------------------|
-----------------------------------|---------------------------|
-----------------------------------|---------------------------|
-----------------------------------|---------------------------|
-----------------------------------|---------------------------|

--8--8--8--8--8--8h-10--7--|--7--7--7--7--7--7--7--5--|
---------------------------|--------------------------|
---------------------------|--------------------------|
---------------------------|--------------------------|
---------------------------|--------------------------|
---------------------------|--------------------------|

--5--5--5--x--5--5--5--5--|--5--5--5--7--7--7--8--8--|
--------------------------|--------------------------|
--------------------------|--------------------------|
--------------------------|--------------------------|
--------------------------|--------------------------|
--------------------------|--------------------------|

--8--8--8--8--12----12-12h13p-|--12p-10h-12--10--8--7--7--7--|
------------------------------|------------------------------|
------------------------------|------------------------------|
------------------------------|------------------------------|
------------------------------|------------------------------|
------------------------------|------------------------------|

--7--8--8r-------8--7--|--8--8r-------8--8--8--|--20--8--8--7--7--7--7--7--|
-----------------------|-----------------------|---------------------------|
-----------------------|-----------------------|---------------------------|
-----------------------|-----------------------|---------------------------|
-----------------------|-----------------------|---------------------------|
-----------------------|-----------------------|---------------------------|

--5--4--4--5--7--7--7--7--|--7--7--7--7--7--7~x~7~7~7~7~|
--------------------------|-----------------------------|
--------------------------|-----------------------------|
--------------------------|-----------------------------|
--------------------------|-----------------------------|
--------------------------|-----------------------------|

--7~7~x~7~7~7~x~7~7~7~7~7~x~7~7~7~|--7~7~7~7~7~7~x~7~7~7~x~7~7~7~7~7~|
----------------------------------|----------------------------------|
----------------------------------|----------------------------------|
----------------------------------|----------------------------------|
----------------------------------|----------------------------------|
----------------------------------|----------------------------------|

--12--12-12h12h-13p-12p-10--12--10--|--8p-7h-8--x--10--10--10--10--10--|
------------------------------------|----------------------------------|
------------------------------------|----------------------------------|
------------------------------------|----------------------------------|
------------------------------------|----------------------------------|
------------------------------------|----------------------------------|

--10--8--7--7--7--7--7--5--|--5~5~5~5~5~x~5~5~x~5~5~5~5~5~x~5~|
---------------------------|----------------------------------|
---------------------------|----------------------------------|
---------------------------|----------------------------------|
---------------------------|----------------------------------|
---------------------------|----------------------------------|

--5~5~x~5~5~5~5~x~5~5~5~5~x~5~5~5~|--5~5~5~5~x~5~5~5~5~5~5~x~5~x~5~5~|
----------------------------------|----------------------------------|
----------------------------------|----------------------------------|
----------------------------------|----------------------------------|
----------------------------------|----------------------------------|
----------------------------------|----------------------------------|

--5~5~5~x~5~5~5~5~x~5~5~5~x~5~5~5~|---------------x----||
----------------------------------|---------------x----||
----------------------------------|--7------------x----||
----------------------------------|--0------------x----||
----------------------------------|--0------------x----||
----------------------------------|--0------------x----||

I promise this is a song to show off to!
Suggest correction
comments
print report bad tab
2 comments total.
0 reply
Soadchopsuey 10 wrote on August 14 2009, 03:56 pm

Eh, can you please tell me from what live show it is? is it BDO 2002? if so, you're the man, i've been looking for ages for this tab. So tnx dude!

0 reply
SytemOfAnIbanez 15 wrote on October 16 2009, 09:48 pm

yeah, look up pinkpop too i haven't learnt it all yet sorry for the late reply

guest
You may want to rate the tab now too:
select rating
Wanna post a correction for this tab? Suggest correction