Oops, an error
Loading. Please wait.

Psycho Tab

version 1
version 1

Whole song

Interactive

99,675 views 63 this week
13 commentsread comments
1 2 3 4 5
x 20
add to favorites
launch autoscroll
font size
0
reset
how to read this tab
guitar tuner
Autoscroll
slow
fast
+/-
esc
set tempo
stop
Help us to improve Ultimate-Guitar.com Take our survey!
×
Psycho
System of a Down
distortednetwerk.vze.com
100% Correct...


[Intro]

(part 1)
:------------------------------------------------------------|
:------------------------------------------------------------|
:------------------------------------------------------------|
:------------------------------------------------------------|
:------------------------------------------------------------|
:2-2-22-22-2222-2-2-22-22-2222-0-0-00-00-0000-0-0-00-00-0000-|


[Intro]

(part 2)
:12-x-12-x-12-xx-12-x-12-x-12-x-12-xx-12-xx-10-x-10xx-10-x-10-xx-|
:----------------------------------------------------------------|
:----------------------------------------------------------------|
:----------------------------------------------------------------|
:----------------------------------------------------------------|
:----------------------------------------------------------------|

:10-xx-10-xx-10-x-10-xx-|
:-----------------------|
:-----------------------|
:-----------------------|
:-----------------------|
:-----------------------|


Intro (part 3)-Gradually Bend String
:-13-13-13-13-|
:-------------|
:-------------|
:-------------|
:-------------|
:-------------|


Riff 1:
Psycho!!...
:----------|
:----------|
:----------|
:----------|
:22-2-22-2-|
:22-2-22-2-|


Riff 2:
Psycho groupie....
:--------------------|
:--------------------|
:--------------------|
:--------------------|
:2----2----2----2----|
:2-33-2-33-2-33-2-33-|

Riff 3:
And Stop...
:-------------------------------------|
:-------------------------------------|
:-7--7-7--7-7-7-7s10--10-1010-10--10--|
:-7--7-7--7-7-7-7s10--10-1010-10--10--|
:-5--5-5--5-5-5-5s8---8--8-8--8---8---|
:-------------------------------------|


Riff 4:
Out.....Oh......
:---------------------|
:---------------------|
:---------------------|
:2-------0-2--------0-|
:2-------0-2----------|
:2-------0-2----------|


[Bridge]

So you want the world...
:-----------------------------------------------------------------------|
:---3-3--3---3-33----------------------3--3--3-33-3---------------------|
:1--1-1--1---1-11-2-22-2454b-4-4222----2--2--2-24-2---------------------|
:2---------2------0-----------------3----3------------------------------|
:---------------------------------------------------22-2-22-2-22-2-22-2-|
:---------------------------------------------------22-2-22-2-22-2-22-2-|

So you want to see the show...
:---------------------------------------------------------------------|
:----3-3-3---3-33---------------------3-3-3---333---------------------|
:-1--1-1-1---1-11-2-22455s7-5-54422---2-2-2---242---------------------|
:-2--------2------0----------------3--------3-------------------------|
:-------------------------------------------------22-2-22-2-22-2-22-2-|
:-------------------------------------------------22-2-22-2-22-2-22-2-|


[Solo]

(*sigh* here we go)
:---------------------------------------------------------------------|
:10h12-------1012-12b-1212-13-12h13h12h10----10h12--10-9-910-10s12-10-|
:---------------------------------------------------------------------|
:---------------------------------------------------------------------|
:---------------------------------------------------------------------|
:---------------------------------------------------------------------|

:--------------12------------------------------------------------------|
:10h12----1012------1212-13-12h13h12h10b10b10b-10-10-10h12--10-10-99-9-|
:----------------------------------------------------------------------|
:----------------------------------------------------------------------|
:----------------------------------------------------------------------|
:----------------------------------------------------------------------|

:-------------------------|
:-910-9b9-91012109-10--10-|
:---------------------9---|
:-------------------------|
:-------------------------|
:-------------------------|


[Outro]

:--0--0--0--0--0--0--0--0--0--0--0--0--0--0--0--0--0--0--0--0--0--0--0-0-|
:12-12-12-12-12-12-10-12-13-13-13-12-12-10-10-10-10-10-10-10-12-12-10-9--|
:------------------------------------------------------------------------|
:------------------------------------------------------------------------|
:------------------------------------------------------------------------|
:------------------------------------------------------------------------|

:-----0--0--0--0--0--0--0--0--0--0--0--0--0--0--0--0--0--0--0--0--0--0-|
:91012-12-12-12-12-12-10-12-12-12-12-12-12-10-12-15-15-15-13-13-12-10--|
:----------------------------------------------------------------------|
:----------------------------------------------------------------------|
:----------------------------------------------------------------------|
:----------------------------------------------------------------------|

[ L e t R i n g ]
:--0--0--0--00-|
:10-10-12-10-9-|
:--------------|
:--------------|
:--------------|
:--------------|


Song order:
Intro Part 1- 2x
Intro Part 2- 2x
Intro Part 3- 7x (while gradually bending)
Riff 1      - 4x
Riff 2      - 8x
Riff 3      - 1x
Riff 1      - 2x
Riff 2      - 8x
Riff 4      - 1x
Bridge      - 1x
Riff 2      - 8x
Riff 3      - 1x
Riff 4      - 1x
Bridge      - 1x
Riff 1      - 1x
Solo        - 1x
Outro       - 1x



************************************

| x  Dead note
| h  Hammer-on
| b  Bend
| s  Slide

************************************
Suggest correction
comments
print report bad tab
13 comments total. Showing first comments.
+1 reply
?øXÍÇÍ?¥ 10 May 17, 2003 12:00 AM

The tab is good except the solo is way off, but Im not gonna bash you cause at least you tabbed it, so good job.

+1 reply
Lethal-Designz 10 May 24, 2005 12:00 AM

100% correct doesn't seem to be case to me..........

+2 reply
lennen1rulez 100 Jul 28, 2005 12:00 AM

This tab is good, but nnot good, because you cant see what to propualy play in the solo!!! (use more spaces!)

Good job on da rest

guest
You may want to rate the tab now too:
select rating
Wanna post a correction for this tab? Suggest correction