Oops, an error
Loading. Please wait.
We have an official Psycho tab made by UG professional guitarists. Check out the tab »
×
10,640 views 15 this week
3 commentsread comments
1 2 3 4 5
x 9
add to favorites
×
Save as Personal and add changes to this tab that will be seen only by you. Learn more ›
×
You can save this tab as Personal to edit and correct it or add notes. All changes will be seen only by you. Learn more »
launch autoscroll
font size
0
reset
guitar tuner
edit
Autoscroll
slow
fast
+/-
esc
set tempo
stop
Intro

F||----------------|---------------|---------------|---------------||
C||*---------------|---------------|---------------|--------------*||
G||*---------------|---------------|---------------|--------------*||
C||--2-22-222-2222-|-2-22-222-2222-|-0-00-000-0000-|-0-00-000-0000-||

                         x2
F|----||------------------||
C|----||*----------------*||
G|----||*----------------*||
C|--/-||--33--33--33--33--||


riff I
                 end riff I x2
F|--------------------------||
C|--------------------------||
G|--------------------------||
C|--33-2--33-2--33-2--33-2--||


riff II
                    x3                        end riff II       x4
F|-------------------|----------------------|-------------------|
C|-------------------|----------------------|-------------------|
G|-------------------|----------------------|-------------------|
C|--332-332-332-332--|--332-332-332-332--3--|--332-332-332-332--|

F|---------------------|------------------|
C|---------------------|------------------|
G|---------------------|------------------|
C|--0--0--0-00--0-0-0--|-/3--3--3--3--32--|

riff I  x2
riff II

F|---------------------|--------------|-------------|
C|---------------------|--------------|-------------|
G|---------------------|--------------|-------------|
C|--0--0--0-00--0-0-0--|-/3--3--3--3--|--2~----0-2--|

F|--------------------|----------|----------------------|
C|--------------------|----------|----------------------|
G|--------------------|--riff-I--|----------------------|
C|--0-2~---2-0~--/3~--|----------|--2~--0~--0-2-3--(3)--|

riff I
riff II

F|---------------------|---------------|-------------|
C|---------------------|---------------|-------------|
G|---------------------|---------------|-------------|
C|--0--0--0-00--0-0-0--|--/3--3--3--3--|--2~---0-2~--|

F|-----------------------------|----------|-------------------------|
C|-----------------------------|----------|-------------------------|
G|-----------------------------|--riff-I--|-------------------------|
C|--0-2~--0~--0-2-3--(3)--(3)--|----------|--2~--0~--0-2-3--(3)-(3)-|

riff I

F|-------------------------|------------------------------------|
C|-------------------------|------------------------------------|
G|-------------------------|------------------------------------|
C|--2~--0~--/3-3/5-53-2~-|-0-2~--2-0~--0-2-3--3-3/5-53-2--------|

F|---------------------||---------------||---------------||
C|---------------------||*-------------*||*-------------*||
G|---------------------||*-------------*||*-------------*||
C|--2--2--2-22--2-2-2--||--22-22-22-22--||--00-00-00-00--||

F|------------------------------|------------------------------|
C|------------------------------|------------------------------|
G|------------------------------|------------------------------|
C|--/33-33-33-33-/55-55-33-33--|--22-22-22-22-22-22-22-2-0-----|

F||---------------||---------------||-----------------------------|
C||*-------------*||*-------------*||-----------------------------|
G||*-------------*||*-------------*||-----------------------------|
C||--22-22-22-22--||--00-00-00-00--||--/3---3---3/5--53--2~~------|

            
            
Suggest correction
Creating personal tab
Creating personal tab
You can edit any tab online and save it as your Personal.

You can edit, replace or remove any tab part or add personal notes – all changes will be seen only by you.

Personal tabs can be accessed anytime from any device, even offline.
Learn more »
comments
print report bad tab
3 comments total.
0 reply
Fred026 10 Mar 15, 2011 12:07 PM

there are some small mistakes in the outro and in the order of the riffs some times, but still excellent job :)

+1 reply
maxpowweer 639 May 05, 2011 05:31 AM

This kind of layout makes it hard to follow tbh, would have been no harder no label them "chorus" "verse" etc

guest
Wanna post a correction for this tab? Suggest correction