Oops, an error
Loading. Please wait.

Radio Video bass

version 3
version 3

Whole song

Interactive

4,657 views 3 this week
no commentswrite comment
1 2 3 4 5
3 more votes to show rating
add to favorites
×
Save as Personal and add changes to this tab that will be seen only by you. Learn more ›
×
You can save this tab as Personal to edit and correct it or add notes. All changes will be seen only by you. Learn more »
launch autoscroll
font size
0
reset
guitar tuner
edit
Autoscroll
slow
fast
+/-
esc
set tempo
stop
Author
Band- System Of A Down
Song- Radio/Video
Album- Mesmerize

Tuning: Standard (E A D G)


I know they play this in Drop-D but I think it sounds perfectly fine in standard. 


Verse 2x
G|----------------------------------------------------------------||     |
D|----------------------------------------------------------------||     |
A|----------------------------------------------------------------||     |
E|2-2--4--5--5-5-5-5--4-4-4-4-4-4-4-4-4-4-4-4-4-4-4-4-------------||     |
                                                                         |
                                                                         | Verse 2x
G|----------------------------------------------------------------||     |
D|----------------------------------------------------------------||     |
A|-------------------3-3-3-3-3-3-3-3-3-3-3-3-3-3-3-3--------------||     |
E|2-2--4--5--5-5-5-5----------------------------------------------||     |

( you can play the A (the 5th fret) 1 or 5 times, its actually the same, you just need 
to fill that tempo)


G|----------------------------------------------------------------||
D|----------------------------------------------------------------||
A|4-2-------------------------------------------------------------||
E|----5-4b-2------------------------------------------------------||



chorus 4x
G|----------------------------------------------------------------||
D|----------------------------------------------------------------||
A|----------------------------------------------------------------||         4x
E|2-2-2-2-2-2-2-2---0-0-0-0-0-0-0-0-0-----------------------------||



Verse 1x
G|----------------------------------------------------------------||
D|----------------------------------------------------------------||
A|----------------------------------------------------------------||
E|2-2--4--5--5-5-5-5--4-4-4-4-4-4-4-4-4-4-4-4-4-4-4-4-------------||


G|----------------------------------------------------------------||
D|----------------------------------------------------------------||
A|-------------------3-3-3-3-3-3-3-3-3-3-3-3-3-3-3-3--------------||
E|2-2--4--5--5-5-5-5----------------------------------------------||

G|----------------------------------------------------------------||
D|----------------------------------------------------------------||
A|4-2-------------------------------------------------------------||
E|----5-4b-2------------------------------------------------------||



chorus 4x
G|----------------------------------------------------------------||
D|----------------------------------------------------------------||
A|----------------------------------------------------------------||         4x
E|2-2-2-2-2-2-2-2---0-0-0-0-0-0-0-0-0-----------------------------||

Begin to fade from 3rd time to fourth.


pre-bridge 1x
G|-----------------------------------------------------------------------||
D|-----------------------------------------------------------------------||
A|-----------------------------------------------------------------------||
E|--(2-4-5)--------------4-4-4-4-4-4-4-4-4-4-4-4-4-4-4-4-----------------||
  Very softly

G|----------------------------------------------------------------||
D|----------------------------------------------------------------||
A|------------------3-3-3-3-3-3-3-3-3-3-3-3-3-3-3-3---------------||
E|---(2-4-5)------------------------------------------------------||
   Very softly
G|----------------------------------------------------------------||
D|----------------------------------------------------------------||
A|4-2-------------------------------------------------------------||
E|----5-4b-2------------------------------------------------------||




Bridge
G|----------------------------------------------------------------||
D|----------------------------------------------------------------||
A|-4-4-4-4-2---2-2-2------2---------------------------------------||         9x
E|2-2-2-2---4-0-0-0-0-2-4-----------------------------------------||
Increasing in speed each time played


Then
G|----------------------------------------------------------------||
D|----------------------------------------------------------------||
A|-4-4-4-4-2---2-2-2----------------------------------------------||
E|2-2-2-2---4-0-0-0-0-0-0-0-0-0-0-0-------------------------------||
( the E ( or openstring, the 0 ) follows the drums )



Final Verse
G|----------------------------------------------------------------||
D|----------------------------------------------------------------||
A|----------------------------------------------------------------||
E|2-2--4--5--5-5-5-5--4-4-4-4-4-4-4-4-4-4-4-4-4-4-4-4-------------||


G|----------------------------------------------------------------||
D|----------------------------------------------------------------||
A|-------------------3-3-3-3-13\----------------------------------||
E|2-2--4--5--5-5-5-5----------------------------------------------||

G|----------------------------------------------------------------||
D|----------------------------------------------------------------||
A|----------------------------------------------------------------||
E|2-2--4--5--5-5-5-5--4-4-4-4-4-4-4-4-4-4-4-4-4-4-4-4-------------||


G|----------------------------------------------------------------||
D|----------------------------------------------------------------||
A|-------------------3-3-3-3-3-3-3-3-3-3-3-3-3-3-3----------------||
E|2-2--4--5--5-5-5-5----------------------------------------------||

G|----------------------------------------------------------------||
D|----------------------------------------------------------------||
A|4-2-------------------------------------------------------------||
E|----5-4b-2-2-2-2-2-2-2-2-2-2-2-2-2-2-2-2-2-2--------------------||
(play whatever you want at the end)

            
            
Suggest correction
Creating personal tab
Creating personal tab
You can edit any tab online and save it as your Personal.

You can edit, replace or remove any tab part or add personal notes – all changes will be seen only by you.

Personal tabs can be accessed anytime from any device, even offline.
Learn more »
Give kudos to tab author, rate the tab!
1 2 3 4 5
comments
print report bad tab
guest
You may want to rate the tab now too:
select rating
Wanna post a correction for this tab? Suggest correction