Oops, an error
Loading. Please wait.

Radio Video Bass Tab

version 4
version 4

Whole song

Interactive

2,035 views 9 this week
no commentswrite comment
1 2 3 4 5
excellent!
x 6
add to favorites
launch autoscroll
font size
0
reset
guitar tuner
Tab Pro tools
  • play this tab
  • loop segment
  • change instrument
  • show fretboard
  • metronome
×
Best way to learn
"Radio Video"
Autoscroll
slow
fast
+/-
esc
set tempo
stop
Contributor
Difficulty
Tuning
novice
C# G# C# F# A# D#
Chorus
F#|----------------------------------------|--------------------------------------|
C#|----------------------------------------|--------------------------------------|
G#|------00---11111111---3\100000000000000-|------00---11111111---6\44~4444444444-|
C#|-55-------------------------------------|-55-----------------------------------|

F#|----------------------------------------|-------------------------------------------------|
C#|----------------------------------------|-------------------------------------------------|
G#|------00---11111111---3\100000000000000-|------00---11111111---6\44~4444444444-5--3--1--0-|
C#|-55-------------------------------------|-55----------------------------------------------|


Verse
F#|-------------------------|-------------------------|
C#|-------------------------|-------------------------|
G#|-------------------------|-------------------------|
C#|-5x-5x-5x-5x-5x-5x-5x-5x-|-3x-3x-3x-3x-3x-3x-3x-3x-|x4


Chorus 2
F#|----------------------------------------|-------------------------------------------------|
C#|----------------------------------------|-------------------------------------------------|
G#|------00---11111111---3\100000000000000-|------00---11111111---6\44~4444444444-5--3--1--0-|
C#|-55-------------------------------------|-55----------------------------------------------|


Verse 2
F#|-------------------------|-------------------------|
C#|-------------------------|-------------------------|
G#|-------------------------|-------------------------|
C#|-5x-5x-5x-5x-5x-5x-5x-5x-|-3x-3x-3x-3x-3x-3x-3x-3x-|x4


Chorus 3
F#|----------------------------------------|-------------------------------------------------|
C#|----------------------------------------|-------------------------------------------------|
G#|----------------------3\100000000000000-|----------------------6\44~4444444444-5--3--1--0-|
C#|-5~-------------------------------------|-5~----------------------------------------------|


Bridge
F#|---------------------------|---------------------------|
C#|---------------------------|---------------------------|
G#|-------------------------0-|-------------------------0-|
C#|-5x-5x-5x-5x-5x-5x-5x-5x---|-3x-3x-3x-3x-3x-3x-3x-3x---|x4


Lala La Lala La Lah (Start Playing it Faster)
F#|---------------------------|---------------------------|
C#|---------------------------|---------------------------|
G#|-------------------------0-|-------------------------0-|
C#|-5x-5x-5x-5x-5x-5x-5x-5x---|-3x-3x-3x-3x-3x-3x-3x-3x---|x2

F#|-------------------|-------------------|
C#|-------------------|-------------------|
G#|-----------------0-|-----------------0-|
C#|-5-5-5-5-5-5-5-5---|-3-3-3-3-3-3-3-3---|x4


Chorus 4
F#|----------------------------------------|--------------------------------------|
C#|----------------------------------------|--------------------------------------|
G#|------00---11111111---3\100000000000000-|------00---11111111---6\4444~---------|
C#|-55-------------------------------------|-55--------------------------16-\-\-\-|

F#|----------------------------------------|-----------------------------------------------------|
C#|----------------------------------------|-----------------------------------------------------|
G#|------00---11111111---3\100000000000000-|------00---11111111---6\44~4444444444-5--3--1--0-----|
C#|-55-------------------------------------|-55-----------------------------------------------5~-|


Jack Mills
comments
print report bad tab
I want to post or [tab]
guest
You may want to rate the tab now too:
select rating
Please do not post tabs as comments. Select "correction" instead!