Oops, an error
Loading. Please wait.
We have an official Roulette tab made by UG professional guitarists. Check out the tab »
×

Roulette tab

version 2
version 2

Whole song

231,103 views 39 this week
22 commentsread comments
1 2 3 4 5
x 49
add to favorites
×
Save as Personal and add changes to this tab that will be seen only by you. Learn more ›
×
You can save this tab as Personal to edit and correct it or add notes. All changes will be seen only by you. Learn more »
launch autoscroll
font size
0
reset
how to read this tab
guitar tuner
edit
Autoscroll
slow
fast
+/-
esc
set tempo
stop
Author
Unregistered
Song: Roulette
Artist: System of a Down
Album: Steal This Album!

Tabbed by Dr. Linus Rebar

Most of the tabs for the verse and chorus of this song
that are out there are pretty good, but the last part 
of the solo is always off by a long shot. I'm not 
saying that mine is perfect, but mine does sound better 
than the other tabs out there. (No offense to the other 
tabbers though. Good effort)

Also, I sorta tabbed the solo at half of the speed of
the verse and chorus because it was easier that way. I
hope that doesn't inconvenience anyone.

Tuning: D G C F A D (Tuned down 1 step)


[Intro/Verse]
e|----------------|------5---------|----------------|
B|----6-------6---|-------------5--|------8-------8-|
G|----------------|----------------|----------------|
D|----------------|-0h3------------|----------------|
A|-5----5---5-----|--------0h3-----|-0h6----6---6---|
E|----------------|----------------|----------------|

e|----------------|
B|------3-----5---|
G|----------------|
D|----------------|
A|-0h1----0h3---3-|
E|----------------|

[Chorus]
e|----------------|----------------|----------------|
B|----6-------6---|----------------|----5-------5---|
G|----------------|----6-------6---|----------------|
D|----------------|----------------|----------------|
A|-5----5---5-----|----------------|-3----3---3-----|
E|----------------|-5----5---5-----|----------------|

e|----------------|
B|------3-----5---|
G|----------------|
D|----------------|
A|-0h1----0h3---3-|
E|----------------|

[Solo]
e|-10-------------|-10h12h13-------|-12h13h15-------|
B|----------------|----------------|----------------|
G|----------------|----------------|----------------|
D|----------------|----------------|----------------|
A|----------------|----------------|----------------|
E|----------------|----------------|----------------|

e|-12h13h15-13-12-|-10-12-13-12-10-|-10-------------|
B|----------------|----------------|-----------10-10|
G|----------------|----------------|----------------|
D|----------------|----------------|----------------|
A|----------------|----------------|----------------|
E|----------------|----------------|----------------|

e|----------------|----------------|----------------|
B|-10h11h13-11-10-|-8-10-11-10-8---|-8--------------|
G|----------------|----------------|----------------|
D|----------------|----------------|-----------10-10|
A|----------------|----------------|----------------|
E|----------------|----------------|----------------|

e|-6h8p6----------|-5h6p5----------|-3--x--1--------|
B|-6h8p6----------|-5h6p5----------|-5--x--3--------|
G|----------------|----------------|----------------|
D|----------------|----------------|----------------|
A|----------------|----------------|----------------|
E|----------------|----------------|----------------|


Order:
Intro/Verse X4
Chorus      X2
Verse       X4
Chorus      X4
Solo        X2
Chorus      X4
Verse       X4


Lyrics:

[Verse]
I have a problem that I cannot explain,
I have no reason why it should have been so plain.
Have no questions but I sure have excuse,
I lack the reason why I should be so confused.

[Chorus]
I know, how I feel when I'm around you,
I don't know, how I feel when I'm around you
Around you

[Verse]
Left a message but it ain't a bit of use,
I have some pictures, the wild might be the deuce.
Today you saw, you saw me, you explained,
Playing the show and running down the plane.

[Chorus]
I, I know, how I feel when I'm around you,
I, don't know, how I feel when I'm around you,
I, I know, how I feel when I'm around you,
I, don't know, how I feel when I'm around you

[Solo]

[Chorus]
I, I know, how I feel when I'm around you,
I, don't know, how I feel when I'm around you,
I, I know, how I feel when I'm around you,
I, don't know, how I feel when I'm around you

[Verse]
Around you, Around you, Around you...
Suggest correction
Creating personal tab
Creating personal tab
You can edit any tab online and save it as your Personal.

You can edit, replace or remove any tab part or add personal notes – all changes will be seen only by you.

Personal tabs can be accessed anytime from any device, even offline.
Learn more »
comments
print report bad tab
22 comments total. Showing first comments.
+2 reply
queenfonzy 10 Sep 12, 2003 08:00 PM

good

+7 reply
ducttape83 10 Nov 17, 2003 07:00 PM

We know what FUBAR means, Sucks@playing

+4 reply
ducttape83 10 Nov 17, 2003 07:00 PM

This tab is great.

guest
Wanna post a correction for this tab? Suggest correction