Oops, an error
Loading. Please wait.

Roulette Tab

version 3
version 3

Whole song

135,502 views 336 this week
21 commentsread comments
1 2 3 4 5
x 55
add to favorites
launch autoscroll
font size
0
reset
how to read this tab
guitar tuner
×
Best way to learn
"Roulette"
Autoscroll
slow
fast
+/-
esc
set tempo
stop
Author
Difficulty
Tuning
  follow
novice
C G C F A D
Song: Roulette
Artist: System of a Down
CD:Steal This Album!
Tabbing By: Limitbreaker13

Tuning: Drop C (Low to High) CGCFAD

Quite a simple tab for a simple heartfelt song.


[Verse]

D|------------------------------------------------------|
A|---6-----6-------10------5------8-----8-----3-----5---|
F|------------------------------------------------------|
C|------------------------------------------------------|
G|-5---5-5----5/8-----0-3----3/6----6-6---0-1---1-3---3/|
C|------------------------------------------------------|


[Chorus]

D|------------------------------------------------------|
A|---6-----6---2----2-----5-----5-----3-----5-----------|
F|------------------------------------------------------|
C|------------------------------------------------------|
G|-5---5-5---0---0-0--0-3---3-3---0-1---1/3---3/--------|
C|------------------------------------------------------|


[Solo]

D|-10--10-12-13--12-13-15--12-13-15-13-12-10-12-13-12---|
A|------------------------------------------------------|
F|------------------------------------------------------|
C|------------------------------------------------------|
G|------------------------------------------------------|
C|------------------------------------------------------|

D|-10-10------------------------------------------------|
A|-------10-10--10-11-13-11-10-8-10-11-10-8-8-----------|
F|--------------------------------------------5-5-------|
C|------------------------------------------------------|
G|------------------------------------------------------|
C|------------------------------------------------------|

D|-5/6\5-5-3-3-1-1--------------------------------------|
A|-6/8\6-6-5-5-3-3--------------------------------------|
F|------------------------------------------------------|
C|------------------------------------------------------|
G|------------------------------------------------------|
C|------------------------------------------------------|


Lyrics


[Verse 1]

I have a problem that I cannot explain
I have no reason why it shouldve been so plain
have no questions but I sure have excuse
I lack the reason why I should be so confused


[Chorus]

I know how I feel when im around you
I dont know how I feel when im around you
Around you


[Verse 2]

Left a message but it aint a bit of use
I have some pictures the wild might be the deuce
Today you saw, you saw me you explained 
Playin the show and running down the plane


[Chorus]

I know how I feel when i'm around 
I dont know how I feel when im around
I know how I feel when im around you
I dont know how I feel when im around you

************************************

| /  Slide up
| \  Slide down

************************************
Suggest correction
comments
print report bad tab
21 comments total. Showing first comments.
0 reply
p0rn0sauRus 10 Jan 18, 2003 07:00 PM

Im still new to guitar. hope i dont offend u but the chorus from g5-a6 to g0-a2.....i try playing it but its a little off beat. am i not getting the right timing?

0 reply
Limitbreaker13 55 Jan 23, 2003 07:00 PM, edited on April 28 2015, 11:06 am

it's correct, just listen to the song, and you will see that he skips hitting one of the notes. trust me.
Limitbreaker13@aol.com

0 reply
SerjicalStrike 10 Mar 03, 2003 07:00 PM

Great Tab!

guest
You may want to rate the tab now too:
select rating
Wanna post a correction for this tab? Suggest correction