Oops, an error
Loading. Please wait.
We have an official Roulette tab made by UG professional guitarists. Check out the tab »
×

Roulette tab

version 7
version 7

Whole song

6,205 views 1 this week
4 commentsread comments
1 2 3 4 5
x 4
add to favorites
×
Save as Personal and add changes to this tab that will be seen only by you. Learn more ›
×
You can save this tab as Personal to edit and correct it or add notes. All changes will be seen only by you. Learn more »
launch autoscroll
font size
0
reset
how to read this tab
guitar tuner
edit
Autoscroll
slow
fast
+/-
esc
set tempo
stop
Author
Artist: System of a Down
Song: Roulette
Album: Steal This Album!
Composer: Daron Malakian
Lyrics: Serj Tankian
Tuning: Drop C (C.G.C.F.A.D)
Tabbed by: Dan Saunderz
Email: DanSaunders@eskimobob.com


Just listen to the song to get the tune.  Please email me if you find any mistakes.

VERSE
D|----------------------------------------------------------------------|
A|----------------------------------------------------------------------|
F|----10--------10--------14--------9----12--------12--------7-------9--|
C|-12----12--12----12--15----15--10---13----13--13----13--8----8--10----|
G|----------------------------------------------------------------------|
C|----------------------------------------------------------------------|
Play 4 times


Chorus
D|----------------------------------------------------------------------|
A|----------------------------------------------------------------------|
F|----10--------10--------9--------9--------12--------12-------7-----9--|
C|-12----12--12----12--10---10--10---10--13----13--13----13--8--8--10---|
G|----------------------------------------------------------------------|
C|----------------------------------------------------------------------|
Play 2 times

VERSE
D|----------------------------------------------------------------------|
A|----------------------------------------------------------------------|
F|----10--------10--------14--------9----12--------12--------7-------9--|
C|-12----12--12----12--15----15--10---13----13--13----13--8----8--10----|
G|----------------------------------------------------------------------|
C|----------------------------------------------------------------------|
Play 4 times

Chorus
D|----------------------------------------------------------------------|
A|----------------------------------------------------------------------|
F|----10--------10--------9--------9--------12--------12-------7-----9--|
C|-12----12--12----12--10---10--10---10--13----13--13----13--8--8--10---|
G|----------------------------------------------------------------------|
C|----------------------------------------------------------------------|
Play 4 times

SOLO
D|-10---10-12-13---12-14-15---12-14-15-14-12-10---12-13-12-10-|
A|------------------------------------------------------------|
F|------------------------------------------------------------|
C|------------------------------------------------------------|
G|------------------------------------------------------------|
C|------------------------------------------------------------|

D|-10----------------------------------------|
A|-----10-10---10-12-13-12-10-8---10-11-10-8-|
F|-------------------------------------------|
C|-------------------------------------------|
G|-------------------------------------------|
C|-------------------------------------------|

D|--------------------------------|
A|-8--------5\3---3\1---1\--------|
F|----5-5---5\3---3\1---1\5---5\3-|
C|-----------------------\4---4\2-|
G|--------------------------------|
C|--------------------------------|
Play solo 2 times

Chorus
D|----------------------------------------------------------------------|
A|----------------------------------------------------------------------|
F|----10--------10--------9--------9--------12--------12-------7-----9--|
C|-12----12--12----12--10---10--10---10--13----13--13----13--8--8--10---|
G|----------------------------------------------------------------------|
C|----------------------------------------------------------------------|
Play 4 times


VERSE
D|----------------------------------------------------------------------|
A|----------------------------------------------------------------------|
F|----10--------10--------14--------9----12--------12--------7-------9--|
C|-12----12--12----12--15----15--10---13----13--13----13--8----8--10----|
G|----------------------------------------------------------------------|
C|----------------------------------------------------------------------|
Play 4 times

ENDING NOTE (LET RING)
D|----|
A|----|
F|-10-|
C|-12-|
G|----|
C|----|
Suggest correction
Creating personal tab
Creating personal tab
You can edit any tab online and save it as your Personal.

You can edit, replace or remove any tab part or add personal notes – all changes will be seen only by you.

Personal tabs can be accessed anytime from any device, even offline.
Learn more »
comments
print report bad tab
4 comments total. Showing first comments.
0 reply
-Spiders- 121 Jan 16, 2003 07:00 PM

Dude u got the chords of this song but im not to sure about the strumming, cuz u can clearly hear that pulling the strings with his fingers! u know kinda like a pop on the bass but with the guitar,if u think u can hear strummin its not its a 12 string guitar... try it with a 12 string guitar it might sound better! :)

0 reply
reguilliopadma 10 Jan 09, 2004 07:00 PM

Man how do you play your tab?
It is finger picked!
I really would like to know how you play it

0 reply
BillyJoe1 10 Dec 02, 2005 06:21 AM

This song is picked not strummed!! If you play along to the song u should be able to work that one out! The chords sound right tho!

guest
You may want to rate the tab now too:
select rating
Wanna post a correction for this tab? Suggest correction