Oops, an error
Loading. Please wait.

Roulette Tab

version 9
version 9

Whole song

70,737 views 42 this week
33 commentsread comments
1 2 3 4 5
x 71
add to favorites
launch autoscroll
font size
0
reset
how to read this tab
guitar tuner
×
Best way to learn
"Roulette"
Autoscroll
slow
fast
+/-
esc
set tempo
stop
This is my first ever tab so please feel free to make any corrections

[Intro and Verse]
e|---------------------------------------------------------------------|
B|---------------------------------------------------------------------|
G|----8-------8----------12-------7--------10------10-------5-------7--|
D|---------------------------------------------------------------------|
A|---------------------------------------------------------------------|
E|-8----8--8----8--8/11----11--6----6--6/9----9--9----9--4----4--6----6|

[Chorus]
e|---------------------------------------------------------------------|
B|---------------------------------------------------------------------|
G|------8-------8-------4-------4-------7-------7-------5-------7------|
D|---------------------------------------------------------------------|
A|---------------------------------------------------------------------|
E|---8----8--8----8--3----3--3----3--6----6--6----6--4----4--6----6----|

[Lyrics]
I have a problem that I cannot explain,
I have no reason why it should've been so plain,
Have no questions but I sure have excuse,
I lack the reason why I should be so confused.

I know, how I feel when I'm around you,
I don't know, how I feel when I'm around you,
Around you.

Left a message but it ain't a bit of use,
I have some pictures, the wild might be the deuce,
Today you saw, you saw me, you explained,
Playin the show and running down the plane.

I know, how I feel when I'm around you,
I don't know, how I feel when I'm around you,
I know, how I feel when I'm around you,
I don't know, how I feel when I'm around you,
Around you,

I know, how I feel when I'm around you,
I don't know, how I feel when I'm around you,
I know, how I feel when I'm around you,
I don't know, how I feel when I'm around you,
Around you, Around you, Around you...

Tabbed By Clint Robinson (nirvana_rocks)

************************************

| /  Slide up

************************************
Suggest correction
comments
print report bad tab
33 comments total. Showing first comments.
0 reply
skynyrdfreak 65 Aug 12, 2004 08:00 PM

u speak wussyness

0 reply
skynyrdfreak 65 Aug 12, 2004 08:00 PM

u speak wussyness

0 reply
Doberboy 10 Jan 25, 2005 07:00 PM

Thank you for making this tab. I too am a SOAD fan and this is one of my favorite songs they made. Not only did you tab the entire song correctly, but you also made it relatively easy! Brilliant! I looked all over for a descent tab for this song only to find a buttload of overly difficult tabs that were incorrect. I commend you and I am eternally grateful.

guest
You may want to rate the tab now too:
select rating
Wanna post a correction for this tab? Suggest correction