Oops, an error
Loading. Please wait.

Science Bass

version 2
version 2

Whole song

8,602 views 21 this week
3 commentsread comments
1 2 3 4 5
x 5
add to favorites
launch autoscroll
font size
0
reset
guitar tuner
×
Best way to learn
"Science"
Autoscroll
slow
fast
+/-
esc
set tempo
stop
Author
Guitar Intro: no bass

Chorus Riff: x2

F|-----------------------------------------|
C|-----------------------------------------|
G|5--------5--------5--------1-0-5-7-8-7-5-|
C|--000000---000000---000000---------------|

Verse Riff: x2 The rhythm's a bit hard to pick up on, but you'll figure it out.

F|----------------------------------------------------|
C|----------------------------------------------------|
G|6-555555-6-555555-6-5555-6-5555-6-55-6-55-6-55-6-55-|
C|----------------------------------------------------|

Chorus Riff: x2

F|-----------------------------------------|
C|-----------------------------------------|
G|5--------5--------5--------1-0-5-7-8-7-5-|
C|--000000---000000---000000---------------|

Verse Riff: x2

F|----------------------------------------------------|
C|----------------------------------------------------|
G|6-555555-6-555555-6-5555-6-5555-6-55-6-55-6-55-6-55-|
C|----------------------------------------------------|

Chorus Riff: x2

F|-----------------------------------------|
C|-----------------------------------------|
G|5--------5--------5--------1-0-5-7-8-7-5-|
C|--000000---000000---000000---------------|

Interlude: x2

F|------------------------|
C|------------------------|
G|----------1-0-5-7-8-7-5-|
C|0~~2~~3~~---------------|

Second Interlude: x1

F|-----------------------|
C|-----------------------|
G|--------------------5~-|
C|0-0-0--0-0-0--0-0-0----|

Third Interlude x1

I just improv here, the bass is kinda hidden behind Daron's seductive "owaowao's" and 
guitar line. Just play some rhythm bass.

Verse Riff: x1

F|----------------------------------------------------|
C|----------------------------------------------------|
G|6-555555-6-555555-6-5555-6-5555-6-55-6-55-6-55-6-55-|
C|----------------------------------------------------|

Chorus Riff: x2

F|-----------------------------------------|
C|-----------------------------------------|
G|5--------5--------5--------1-0-5-7-8-7-5-|
C|--000000---000000---000000---------------|

Interlude: x6 or so

F|------------------------|
C|------------------------|
G|----------1-0-5-7-8-7-5-|
C|0~~2~~3~~---------------|
Suggest correction
comments
print report bad tab
3 comments total.
0 reply
Bass_Playa17 20 Aug 01, 2005 08:00 PM

great job on the tab everything sounds right except I still can't figure out the third interlude.

0 reply
SoaDist 70 Oct 26, 2005 11:26 AM

I figured out the third interlude (over a year late)

It's a high C. (second string) Thats the only note, but the rhythm isn't hard to pick up.

0 reply
codymcnolty 10 Dec 01, 2013 01:09 PM

F|-----------------------------------------|
C|-----------------------------------------|
G|5--------5--------5------------7-8-10-8-7-|
C|--000000---000000---000000-8-10-----------|

this is the correct way for chorus

guest
You may want to rate the tab now too:
select rating
Wanna post a correction for this tab? Suggest correction