Oops, an error
Loading. Please wait.

Soil tab

version 3
version 3

Whole song

794 views 1 this week
no commentswrite comment
1 2 3 4 5
2 more votes to show rating
add to favorites
×
Save as Personal and add changes to this tab that will be seen only by you. Learn more ›
×
You can save this tab as Personal to edit and correct it or add notes. All changes will be seen only by you. Learn more »
launch autoscroll
font size
0
reset
how to read this tab
guitar tuner
edit
Autoscroll
slow
fast
+/-
esc
set tempo
stop
BAND : System of a down
TITLE: Soil
ALBUM: System of a Down
Tuning: Drop D tuning
Tabbed by KoRotz
Contact me if you have any necessary changes that need to be made at 
epat_skateboarding@hotmail.com or lovehatetragedy@paparoachmail.com

This song is probably one of the hardest songs to play from System becuase of the solo.
Anyways heres my version of it and I say its pretty close cause I watched Darren during
their concert and it's Pretty much 100% correct.  Also I'd been trying to get the tabs 
for this song for sooo long but no one had bothered to do it properly with the solo and
everything so I had to do it for myself in the end.
ENJOY!!


INTRO 1
Strum this with a clean effect
e|-----| 
B|-----|
G|-----|
D|--7--|
A|--8--|
D|-----|

INTRO 2/CHORUS
Play with heavy distortion
e|---------------------------------------| 
B|---------------------------------------|
G|---------------------------------------|
D|-3-1-0-0h3-1-0-<<(x3)-3-1-0-0h3-1/4-4--|
A|-3-1-0-0h3-1-0--------3-1-0-0h3-1/4-4--|
D|-3-1-0-0h3-1-0--------3-1-0-0h3-1/4-4--|

				
	 			
VERSE			    PRE-CHORUS	
e|------------------| |--------------|
B|------------------| |--------------|
G|------------------| |--------------|
D|------------------| |-00--0-1-3----|
A|------------------| |-00--0-1-3----|
D|-3-1-0-0h3-1-0----| |-00--0-1-3----|
       p.m

BRIDGE 1

e|---------------------------------------------13---|
                

            
            
Suggest correction
Creating personal tab
Creating personal tab
You can edit any tab online and save it as your Personal.

You can edit, replace or remove any tab part or add personal notes – all changes will be seen only by you.

Personal tabs can be accessed anytime from any device, even offline.
Learn more »
Give kudos to tab author, rate the tab!
1 2 3 4 5
comments
print report bad tab
guest
Wanna post a correction for this tab? Suggest correction