Oops, an error
Loading. Please wait.

Soldier Side Tab

version 3
36,742 views 72 this week
11 commentsread comments
1 2 3 4 5
x 33
add to favorites
launch autoscroll
font size
0
reset
how to read this tab
guitar tuner
×
Best way to learn
"Soldier Side"
Autoscroll
slow
fast
+/-
esc
set tempo
stop
Difficulty
Tuning
intermediate
D A D G B E
TABBED BY shotgunjoe (My account is screwed up and I cant log on)
This is a tab for the full version of Soldier Side, and Lonely Day ends on the siren
that ended Soldier Side intro on Mezmerize. This is a masterpiece of a song, and it
is in drop Db (Db Ab Db Gb Bb Eb) tuning.

INTRO
---------------------------------------------------|
---------------------------------------------------|
----12----12----12----12----10----10----10----10---|
---0--0--0--0--0--0--0--0--0--0--0--0--0--0--0--0--|
-13----13----13----13----12----12----12----12------|
---------------------------------------------------|

------------------------------------------------------|
------------------------------------------------------|
-----9------9------9------9-----10----10----10----10--|
---0---0--0---0--0---0--0---0--0--0--0--0--0--0--0--0-|
-12-----12-----12-----12-----12----12----12----12-----|
------------------------------------------------------|

This part is only played in the intro:
-------------------------------------------------------------|
-------------------------------------------------------------|
----12----12-------15----14-12----10----10-------12----12-10-|
---0--0--0--0--------------------0--0--0--0------------------|
-13----13----13-------13-------12----12----12-------12-------|
-------------------------------------------------------------|

------------------------------------------------------|
------------------------------------------------------|
-----9------9------9------9-----10----10----10----10--|
---0---0--0---0--0---0--0---0--0--0--0--0--0--0--0--0-|
-12-----12-----12-----12-----12----12----12----12-----|
------------------------------------------------------|

VERSE
------------------------|
------------------------|
------------------------|
-5-----3-2-0-----8-10---| x2
-5-----3-2-0-----8-10---|
-5-----3-2-0-----8-10---|

This part is all palm muted and fast picking:
-----------------------------------------------------------|
-----------------------------------------------------------|
-----------------------------------------------------------|
-----------------------------------------------------------|  x2
---------------------8-8-8-8-7-7-7-7-----------------------|
-8-8-8-8-8-8-8-8-(x3)----------------0-0-0-0-0-0-0-0-------|(x3)

CHORUS:
---------------------------------------------------|
---------------------------------------------------|
----12----12----12----12----10----10----10----10---|
---0--0--0--0--0--0--0--0--0--0--0--0--0--0--0--0--|
-13----13----13----13----12----12----12----12------|
---------------------------------------------------|

------------------------------------------------------|
------------------------------------------------------|
-----9------9------9------9-----10----10----10----10--|
---0---0--0---0--0---0--0---0--0--0--0--0--0--0--0--0-|
-12-----12-----12-----12-----12----12----12----12-----|
------------------------------------------------------|

Play this along with the chorus riff (fast picking):
-18-(x32)-17-(x32)-15-(x32)-17-(x32)-|
-20-------18-------17-------18-------|
-------------------------------------|
-------------------------------------| x2
-------------------------------------|
-------------------------------------|

SOLO
--------------------------------------------------|
--------------------------------------------------|
-15---14-15-17-15-14-15-14-15-14-10---14-15-14-10-|
-17---15-17-19-17-15-17-15-17-15-12---15-17-15-12-|
--------------------------------------------------|
--------------------------------------------------|

----------------------------------------|
----------------------------------------|
-12-14-12-9---12-14-12-9---7--9--10--12-|
-14-15-14-10--14-15-14-10--8--10-12--14-|  x2
----------------------------------------|
----------------------------------------|

BRIDGE (Welcome To The Soldier Side! The Lines You've Been Dying To Hear For Months!)

------------------------------------------|
------------------------------------------|
------------------------------------------|
-3--3--2--2--5--5--0--0--2--2--2--2--7--7-| x4
-3--3--2--2--5--5--0--0--2--2--2--2--7--7-|
-3--3--2--2--5--5--0--0--2--2--2--2--7--7-|

OUTRO (That great riff from Soldier Side Intro, except the fingering is up higher
on the fretboard, and its slightly faster)
-----------------------------------------------------|
-----------------------------------------------------|
-14---14-15-14-13---13------15-17-/19-17-15-14----14-|
-0-------------0------------17-19-/20-19-17-15----15-|
-0-------------0-------------------------------------|
-15-15---------14-14--14-17--------------------15----|

--------------------------------|
--------------------------------|
-13---13----------13---------10-|
-0----------14-------14-14-14---|
-0-------------------0----0-----|
-14-14---14----14---------------|

Thats the tab for the closing song of Mezmerize/Hypnotize!

Again any corrections or comments send them to coolandcrazy@hotmail.com!

Shotgun Joe signing out!
Suggest correction
comments
print report bad tab
11 comments total. Showing first comments.
0 reply
shotgunjoe 234 Nov 19, 2005 03:17 AM

No its not, you are tabbing the tune to the lyrics, the guitar part is in my tab.

0 reply
musicmartyr 10 Dec 22, 2005 05:40 AM

great tab

0 reply
astepabove 10 May 18, 2006 12:33 PM

awesome tab, dude

guest
You may want to rate the tab now too:
select rating
Wanna post a correction for this tab? Suggest correction