Oops, an error
Loading. Please wait.
We have an official Soldier Side tab made by UG professional guitarists. Check out the tab »
×
29,178 views 36 this week
4 commentsread comments
1 2 3 4 5
x 9
add to favorites
×
Save as Personal and add changes to this tab that will be seen only by you. Learn more ›
×
You can save this tab as Personal to edit and correct it or add notes. All changes will be seen only by you. Learn more »
launch autoscroll
font size
0
reset
how to read this tab
guitar tuner
edit
Autoscroll
slow
fast
+/-
esc
set tempo
stop
Artist: System of a Down
Album: Hypnotize
Song: Soldier Side
Transcripted by: FiretruckJoe

I made this so i could advertise my band Firetruck
We'll rock your socks.

Now to the song:
This is from Soads new cd Hypnotize which is out in 5 days so I figured I'd get a head start and be
the first to tab this awesome song. Listen to the song for the timing cause im too lazy to do it right
although I did make a half ass attempt at it. Enjoy.

Drop Db Tuning: Db Ab Db Gb Bb Eb

[Intro]
 (Clean)
Eb|----------------------------------------------------------------------------------|
Bb|----------------------------------------------------------------------------------|
Gb|-------12--------12--------12--------12--------10--------10--------10--------10---|
Db|-----0----0----0----0----0----0----0----0----0----0----0----0----0----0----0----0-|
Ab|--13--------13--------13--------13--------12--------12--------12--------12--------|
Db|----------------------------------------------------------------------------------|

Eb|------------------------------------------------------------------------------|
Bb|------------------------------------------------------------------------------|
Gb|-------9--------9--------9--------9--------10--------10--------10--------10---|
Db|-----0---0----0---0----0---0----0---0----0----0----0----0----0----0----0----0-|
Ab|--12-------12-------12-------12-------12--------12--------12--------12--------|
Db|------------------------------------------------------------------------------|

Eb|-----------------------------------------------------------------------------|
Bb|-----------------------------------------------------------------------------|
Gb|-------12------15--------15------14-12------10------12--------12--------10---|
Db|-----0----0-------0----0----0-------------0----0-------0----0----0----0----0-|
Ab|--13--------13------13--------13-------12--------12------12--------12--------|
Db|-----------------------------------------------------------------------------|

Eb|------------------------------------------------------------------------------|
Bb|------------------------------------------------------------------------------|
Gb|-------9--------9--------9--------9--------10--------10--------10--------10---|
Db|-----0---0----0---0----0---0----0---0----0----0----0----0----0----0----0----0-|
Ab|--12-------12-------12-------12-------12--------12--------12--------12--------|
Db|------------------------------------------------------------------------------|


[Verses]
 (Distortion)
Eb|---------------------------------------|
Bb|---------------------------------------|
Gb|----------------3-5---------------3-5--|
Db|--5----3-2-0----3-5-5----3-2-0----3-5--|
Ab|--5----3-2-0----1-3-5----3-2-0----1-3--|
Db|--5----3-2-0--------5----3-2-0---------|

 (Clean)
Eb|--13-13-13-13-13-13-17-15-13-13-13-13-13-13-13-13-----|
Bb|--15-15-15-15-15-15-18-17-15-15-15-15-15-15-15-15-----|
Gb|--15-15-15-15-15-15-------14-14-14-14-14-14-14-14-----|    2X
Db|------------------------------------------------------|
Ab|------------------------------------------------------|
Db|------------------------------------------------------|

Eb|--18-18-18-18--17-17-17-17--15-15-15-15--17-17-17-17-----|
Bb|--20-20-20-20--18-18-18-18--17-17-17-17--18-18-18-18-----|
Gb|---------------------------------------------------------|    2X
Db|---------------------------------------------------------|
Ab|---------------------------------------------------------|
Db|---------------------------------------------------------|

[Solo]
 Solo Rhythm (Distortion)
Eb|-----------------------------------------|
Bb|-----------------------------------------|
Gb|-----------------------------------------|     2X
Db|--5-5-5-3-2-0-0-0-0-7-7-7-7-0-2-3-2------|
Ab|--5-5-5-3-2-0-0-0-0-7-7-7-7-0-2-3-2------|
Db|--5-5-5-3-2-0-0-0-0-7-7-7-7-0-2-3-2------|

 Solo Lead (Double picking)  Repeat 2X
Eb|----------------------------------------------------------------------------|
Bb|--11---10-11-13-11-10-11--10-11-10------10-11-10------8-10-8------8-10-8----|
Gb|----------------------------------------------------------------------------|
Db|-----------------------------------12------------12----------11----------11-|
Ab|----------------------------------------------------------------------------|
Db|----------------------------------------------------------------------------|

Eb|----------------------|
Bb|----------------------|
Gb|-----------9--10--12--|
Db|--9-11-12-------------|
Ab|----------------------|
Db|----------------------|

 Solo Rhythm Guitar II (Second time only)
Eb|--18-18-18-18--17-17-17-17--15-15-15-15--17-17-17-17-|
Bb|--20-20-20-20--18-18-18-18--17-17-17-17--18-18-18-18-|
Gb|-----------------------------------------------------|
Db|-----------------------------------------------------|
Ab|-----------------------------------------------------|
Db|-----------------------------------------------------|

The Soldier Side
 (Distortion)
Eb|------------------------------------|
Bb|------------------------------------|
Gb|------------------------------------|    4X
Db|--3-3-2-2-5-5-0-0-2-2-2-2-7-7-7-7---|
Ab|--3-3-2-2-5-5-0-0-2-2-2-2-7-7-7-7---|
Db|--3-3-2-2-5-5-0-0-2-2-2-2-7-7-7-7---|

 (Clean)  Last 3 times
Eb|--17-17--16-16--18-18--17-17--16-16-16-16--21-21-21-21-|
Bb|--18-18--17-17--20-20--18-18--17-17-17-17--22-22-22-22-|
Gb|-------------------------------------------------------|
Db|-------------------------------------------------------|
Ab|-------------------------------------------------------|
Db|-------------------------------------------------------|

[Outro]
Eb|---------------------------------------------------------------------------------|
Bb|--10---10-11-10-9---9--------11/13-13/15/13-11-10--10--9---9------9-----------10-|
Gb|----------------x------------12/14-14/15/14-12-10------x-------9---------9-------|
Db|---------------------------------------------------------------------------7-----|
Ab|-----8------------7---7-7/10---------------------8---8---7-------------7---------|
Db|---------------------------------------------------------------------7-----------|

************************************

| x  Dead note
| b  Bend
| /  Slide up

************************************

            
            
Suggest correction
Creating personal tab
Creating personal tab
You can edit any tab online and save it as your Personal.

You can edit, replace or remove any tab part or add personal notes – all changes will be seen only by you.

Personal tabs can be accessed anytime from any device, even offline.
Learn more »
comments
print report bad tab
4 comments total. Showing first comments.
0 reply
shotgunjoe 234 Dec 25, 2005 08:55 AM

BTW you weren't the first to tab this, check out mine (version 3, not 5 like the UG people have put my name on... thats just the intro... mine was the first for the full version, and its better)

+1 reply
poisonthewell19 20 Jan 03, 2006 11:01 AM

you sound like a little kid shotgunjoe,good tab whoever did this

+1 reply
zacky.v 10 May 11, 2007 08:48 AM

no your band won't rock my socks

guest
Wanna post a correction for this tab? Suggest correction