Oops, an error
Loading. Please wait.

Spiders Tab

version 8
59,531 views 12 this week
1 commentread comment
1 2 3 4 5
x 4
add to favorites
launch autoscroll
font size
0
reset
how to read this tab
guitar tuner
Autoscroll
slow
fast
+/-
esc
set tempo
stop
Help us to improve Ultimate-Guitar.com Take our survey!
×
There r many differnt ways to play the inro, differnt octives and stuff, but
this is the easyest way. Let me kno what u think SOAD123abc@netscape.net



Tuning: Drop C (CGCFAD)

Into/verse
D|----------------------------------------------
A|----------------------------------------------
F|----------------------------------------------
C|---2---2---0---0---0-----2---2---0---0---0----
G|----------------------------------------------
C|-0---0---0---0---0---0-0---0---0---0---0---0-0

D|--------------------------------------------
A|--------------------------------------------
F|--------------------------------------------
C|-3---2---5---3---2h3---2---3---0---0---0----
G|--------------------------------------------
C|---0---0---0---0-----0---0---0---0---0---0-0

Chorus A
|-------------------------------|
|-------------------------------|
|-------------------------------|Heavy Distortion
|-10-10-10-10-10-10-10-10-10-10-|
|-10-10-10-10-10-10-10-10-10-10-|
|-10-10-10-10-10-10-10-10-10-10-|

Chorus B
|----------------------------------|
|----------------------------------|
|-14-12-15-14-12/14--12-12/14-(10)-|
|--x--x--x--x--x/-x---x--x/-x--(x)-|
|-12-10-13-12-10/12--10-10/12--(8)-|
|----------------------------------|

Chorus C
|------------------------------------------|
|------------------------------------------|
|------------------------------------------|Heavy Distortion
|-10-10-10-10-10-10-10-8-8-8-8-8-7-7-7-7-7-|
|-10-10-10-10-10-10-10-8-8-8-8-8-7-7-7-7-7-|
|-10-10-10-10-10-10-10-8-8-8-8-8-7-7-7-7-7-|


Solo A 
|------------------------|
|------------------------|
|-(14)-----(15)-----(18)-|Heavy
|-(-x)-----(-x)-----(-x)-|
|-(12)-----(13)-----(16)-|
|------------------------|

Solo B 
|----------------------------------------------------|
|----------------------------------------------------|
|----19----19----19----19----19----19----19----19-19-|Heavy
|----------------------------------------------------|
|-17----17----17----17----17----17----17----17-------|
|----------------------------------------------------|

|-----------------------------------------------------------|
|-----------------------------------------------------------|
|----20-----20----20----20----18----18----18----18----18-18-|Heavy
|-----------------------------------------------------------|
|-18-----18----18----18----16----16----16----16----16-------|
|-----------------------------------------------------------|

Interlude A
|--------------------------------------|
|--------------------------------------|
|-14-12-15-14-12/14--12-12/14-10-10-10-|
|--x--x--x--x--x/-x---x--x/-x--x--x--x-|
|-12-10-13-12-10/12--10-10/12--8--8--8-|
|--------------------------------------|

Interlude B
|--------------------------------|
|--------------------------------|
|-14-12-15-14-12/14--12-12/14-10-|
|--x--x--x--x--x/-x---x--x/-x--x-|
|-12-10-13-12-10/12--10-10/12--8-|
|--------------------------------|


Order:

Intro/verse x3
Chorse A till u think done
Chorse B x1
Chorse C x1
Verse x3
Chorse A till u think done
Chores B x1
Chorse C x1
Solo A x2
Solo B x2
Chorse A till u think done
Chorse B x1
Chorse C x2
Chorse B x1
Chorus C x1
Interlude A x2
Interlude B x2

Thats it let me kno what u think
Suggest correction
comments
print report bad tab
1 comment total.
0 reply
Sinoque 10 Mar 03, 2006 03:26 PM

that is not the esaiest way....your way you have to skip over a string. You can play it on the G using the 5th,7th,8th and 10th frets. That being said, its exactly the same sound so it doesnt matter really, great tab dude

guest
You may want to rate the tab now too:
select rating
Wanna post a correction for this tab? Suggest correction