Oops, an error
Loading. Please wait.

Stealing Society tab

version 2
version 2

Whole song

2,739 views 3 this week
2 commentsread comments
1 2 3 4 5
1 last vote to show rating
add to favorites
×
Save as Personal and add changes to this tab that will be seen only by you. Learn more ›
×
You can save this tab as Personal to edit and correct it or add notes. All changes will be seen only by you. Learn more »
launch autoscroll
font size
0
reset
how to read this tab
guitar tuner
edit
Autoscroll
slow
fast
+/-
esc
set tempo
stop
Difficulty
intermediate
Artist ::::: System of a Down
Album :::::: Hypnotizee
Song ::::::: Stealing Society

-----------------------------

e|--------------------------------------------|
b|--------------------------------------------|
g|--------------------------------------------|
d|-5-6-6-5-6-6-5-6-6-5----5-6-6-5-6-6-5-6-6-5-|
a|-5-6-6-5-6-6-5-6-6-5----5-6-6-5-6-6-5-6-6-5-|
e|-3-4-4-3-4-4-3-4-4-3----3-4-4-3-4-4-3-4-4-3-|

e|--------------------------------------------|
b|--------------------------------------------|
g|--------------------------------------------|
d|-5-6-6-5----5-6-6-5-----5-6-6-5-6-6-5-6-6-5-|
a|-5-6-6-5----5-6-6-5-----5-6-6-5-6-6-5-6-6-5-|
e|-3-4-4-3----3-4-4-3-----3-4-4-3-4-4-3-4-4-3-|

e|-----------------------------------------------|
b|-----------------------------------------------|
g|-----------------------------------------------|
d|-----------------------------------------------|
a|-----------------------------------------------|
e|-3-3-4-3-3-4-3-3-4-3-3-4-6-6-6-4-4-3-1-1-1-3-4-|

e|-----------------------------------------------|
b|-----------------------------------------------|
g|-----------------------------------------------|
d|-----------------------------------------------|
a|-----------------------------------------------|
e|-3-3-4-3-3-4-3-3-4-3-3-4-6-6-6-4-4-3-1-1-1-3-4-|

e|-----------------------------------------------|
b|-----------------------------------------------|
g|-----------------------------------------------|
d|-----------------------------------------------|
a|-----------------------------------------------|
e|-3-3-4-3-3-4-3-3-4-3-3-4-6-6-6-4-4-3-1-1-1-3-4-|

e|-------------------------------------------|
b|-------------------------------------------|
g|-------------------------------------------|
d|--------------------------8--6--5--3--5--6-|
a|--------------------------8--6--5--3--5--6-|
e|-3-3-4-3-3-4-3-3-4-3-3-4--6--4--3--1--3--4-|

e|-----------------------------------------|
b|-----------------------------------------|
g|-----------------------------------------|
d|-----------------------------------------|
a|-5-5-5-5-6-5-5-5-5-6-5-5-5-5-6-5-5-5-5-6-|
e|-----------------------------------------|

e|-----------------------------------------|
b|-----------------------------------------|
g|-----------------------------------------|
d|-----------------------------------------|
a|-4-4-4-4-5-4-4-4-4-5-4-4-4-4-5-4-4-4-4-5-|
e|-----------------------------------------|

e|-----------------------------------------|
b|-----------------------------------------|
g|-----------------------------------------|
d|-----------------------------------------|
a|-5-5-5-5-6-5-5-5-5-6-5-5-5-5-6-5-5-5-5-6-|
e|-----------------------------------------|

e|-----------------------------------------|
b|-----------------------------------------|
g|-----------------------------------------|
d|-----------------------------------------|
a|-4-4-4-4-5-4-4-4-4-5-4-4-4-4-5-4-4-4-4-5-|
e|-----------------------------------------|

e|-----------------------------------------|
b|-----------------------------------------|
g|-----------------------------------------|
d|-8---8---8-5---5---5-3---3---3-5---5---5-|
a|-8---8---8-5---5---5-3---3---3-5---5---5-|
e|-6---6---6-3---3---3-1---1---1-3---3---3-|

e|------------------------------|
b|------------------------------|
g|------------------------------|
d|-7-------7777778-------888888-|
a|-5555555555555566666666666666-|
e|------------------------------|

e|-----------------------------------------|
b|-----------------------------------------|
g|---------------------7---7---7-8---8---8-|
d|-8---8---8-5---5---5-7---7---7-8---8---8-|
a|-8---8---8-5---5---5-5---5---5-6---6---6-|
e|-6---6---6-3---3---3---------------------|

e|------------------------------|
b|------------------------------|
g|------------------------------|
d|-7-------7777778-------888888-|
a|-5555555555555566666666666666-|
e|------------------------------|

e|-------------------------------------------------------------|
b|-------------------------------------------------------------|
g|-------------------------------------------------------------|
d|-5-6-5--5-6-5--5-6-5--5-6-5--5-6-5--5-6-5--------------------|
a|-5-6-5--5-6-5--5-6-5--5-6-5--5-6-5--5-6-5--------------------|
e|-3-4-3--3-4-3--3-4-3--3-4-3--3-4-3--3-4-3----6-6-4-3-1-1-3-4-|

e|-----------------------------------------|
b|-----------------------------------------|
g|-----------------------------------------|
d|-----------------------------------------|
a|-5-5-5-5-6-5-5-5-5-6-5-5-5-5-6-5-5-5-5-6-|
e|-----------------------------------------|

e|-----------------------------------------|
b|-----------------------------------------|
g|-----------------------------------------|
d|-----------------------------------------|
a|-4-4-4-4-5-4-4-4-4-5-4-4-4-4-5-4-4-4-4-5-|
e|-----------------------------------------|

e|-----------------------------------------|
b|-----------------------------------------|
g|-----------------------------------------|
d|-----------------------------------------|
a|-5-5-5-5-6-5-5-5-5-6-5-5-5-5-6-5-5-5-5-6-|
e|-----------------------------------------|

e|-----------------------------------------|
b|-----------------------------------------|
g|-----------------------------------------|
d|-----------------------------------------|
a|-4-4-4-4-5-4-4-4-4-5-4-4-4-4-5-4-4-4-4-5-|
e|-----------------------------------------|

e|-----------------------------------------|
b|-----------------------------------------|
g|-----------------------------------------|
d|-8---8---8-5---5---5-3---3---3-5---5---5-|
a|-8---8---8-5---5---5-3---3---3-5---5---5-|
e|-6---6---6-3---3---3-1---1---1-3---3---3-|

e|------------------------------|
b|------------------------------|
g|------------------------------|
d|-7-------7777778-------888888-|
a|-5555555555555566666666666666-|
e|------------------------------|

e|-----------------------------------------|
b|-----------------------------------------|
g|---------------------7---7---7-8---8---8-|
d|-8---8---8-5---5---5-7---7---7-8---8---8-|
a|-8---8---8-5---5---5-5---5---5-6---6---6-|
e|-6---6---6-3---3---3---------------------|

e|------------------------------|
b|------------------------------|
g|------------------------------|
d|-7-------7777778-------888888-|
a|-5555555555555566666666666666-|
e|------------------------------|

e|------------------------------------|
b|------------------------------------|
g|-------7-----8--------------7-----8-|
d|-5-----7-----8--------5-----7-----8-|
a|-5-----5-----6--------5-----5-----6-|
e|-3--------------------3-------------|

e|------------------------------------------------------------------|
b|-------------------------------------------------7777777777777777-|
g|-----------------888888888888888877777777777777776666666666666666-|
d|-5555555555555555888888888888888877777777777777774444444444444444-|
a|-555555555555555566666666666666665555555555555555-----------------|
e|-3333333333333333-------------------------------------------------|

e|------------------------------------------------------------------|
b|-------------------------------------------------7777777777777777-|
g|-----------------888888888888888877777777777777776666666666666666-|
d|-5555555555555555888888888888888877777777777777774444444444444444-|
a|-555555555555555566666666666666665555555555555555-----------------|
e|-3333333333333333-------------------------------------------------|

e|--------------------------------------------------|
b|--------------------------------------------------|
g|--------------------------------------------------|
d|-8---5---3---5---77777777777777778888888888888888-|
a|-8---5---3---5---55555555555555556666666666666666-|
e|-6---3---1---3------------------------------------|

e|--------------------------------------------------|
b|--------------------------------------------------|
g|--------------------------------------------------|
d|-8---5---3---5---77777777777777778888888888888888-|
a|-8---5---3---5---55555555555555556666666666666666-|
e|-6---3---1---3------------------------------------|

e|--------------------------------------------------------|
b|--------------------------------------------------------|
g|--------------------------------------------------------|
d|-5-6-5--5-6-5--5-6-5--5-6-5--5-6-5--5-6-5--5-6-5--5-6-5-|
a|-5-6-5--5-6-5--5-6-5--5-6-5--5-6-5--5-6-5--5-6-5--5-6-5-|
e|-3-4-3--3-4-3--3-4-3--3-4-3--3-4-3--3-4-3--3-4-3--3-4-3-|

e|----------------------------------|
b|----------------------------------|
g|-77777777777777778888888888888888-|
d|-77777777777777778888888888888888-|
a|-55555555555555556666666666666666-|
e|----------------------------------|

e|--------------------------------------------------------|
b|--------------------------------------------------------|
g|--------------------------------------------------------|
d|-5-6-5--5-6-5--5-6-5--5-6-5--5-6-5--5-6-5--5-6-5--5-6-5-|
a|-5-6-5--5-6-5--5-6-5--5-6-5--5-6-5--5-6-5--5-6-5--5-6-5-|
e|-3-4-3--3-4-3--3-4-3--3-4-3--3-4-3--3-4-3--3-4-3--3-4-3-|

e|----------------------------------|
b|----------------------------------|
g|-77777777777777778888888888888888-|
d|-77777777777777778888888888888888-|
a|-55555555555555556666666666666666-|
e|----------------------------------|

e|----------------------------------|
b|----------------------------------|
g|-77777777777777778888888888888888-|
d|-77777777777777778888888888888888-|
a|-55555555555555556666666666666666-|
e|----------------------------------|

e|----------------------------------|
b|----------------------------------|
g|-77777777777777778888888888888888-|
d|-77777777777777778888888888888888-|
a|-55555555555555556666666666666666-|
e|----------------------------------|

e|--------------------------------------------|
b|--------------------------------------------|
g|--------------------------------------------|
d|-5-6-6-5-6-6-5-6-6-5----5-6-6-5-6-6-5-6-6-5-|
a|-5-6-6-5-6-6-5-6-6-5----5-6-6-5-6-6-5-6-6-5-|
e|-3-4-4-3-4-4-3-4-4-3----3-4-4-3-4-4-3-4-4-3-|

e|--------------------------------------------|
b|--------------------------------------------|
g|--------------------------------------------|
d|-5-6-6-5----5-6-6-5-----5-6-6-5-6-6-5-6-6-5-|
a|-5-6-6-5----5-6-6-5-----5-6-6-5-6-6-5-6-6-5-|
e|-3-4-4-3----3-4-4-3-----3-4-4-3-4-4-3-4-4-3-|


-----------------------------------------------
Suggest correction
Creating personal tab
Creating personal tab
You can edit any tab online and save it as your Personal.

You can edit, replace or remove any tab part or add personal notes – all changes will be seen only by you.

Personal tabs can be accessed anytime from any device, even offline.
Learn more »
Give kudos to tab author, rate the tab!
1 2 3 4 5
comments
print report bad tab
2 comments total.
0 reply
Masterbasser36 651 Dec 01, 2009 09:52 PM

just as bad as version 2

+2 reply
Nelida13 10 Feb 08, 2011 01:23 AM

soad play it in drop C#

guest
Wanna post a correction for this tab? Suggest correction