Oops, an error
Loading. Please wait.

Sugar Tab

version 1
version 1
75,699 views 312 this week
7 commentsread comments
1 2 3 4 5
x 5
add to favorites
launch autoscroll
font size
0
reset
how to read this tab
guitar tuner
backing track
0:00
0:00
×
Best way to learn
"Sugar"
Autoscroll
slow
fast
+/-
esc
set tempo
stop
Author
sytem of a down
   Sugar                    -------------------
                            -------------------
    intro/chorus   8x       -------------------
E|---------|---------|      -------------------
B|---------|---------|      --------- * * * * *
G|---------|---------|      --------- * * * * *
D|---------|---------|      --------- * * * * *
A|-0-7-6-5-|-0-6-6-5-|
E|-0-7-6-5-|-0-6-6-5-|


     riff 1  3x
|-----13---13---12--------10---10-|
|--10--------------13---10--------|
|---------------------------------|
|---------------------------------|
|---------------------------------|
|---------------------------------|


         riff 2    1x         let ring
|------13---13---12--------|-10----10----10----10----|
|--10---------------13~~~10|----10----10----10----10-|
|--------------------------|-------------------------|  
|--------------------------|-------------------------|
|--------------------------|-------------------------|


    chorus  8x
|---------|---------|
|---------|---------|
|---------|---------|
|---------|---------| 
|-0-7-6-5-|-0-6-6-5-|
|-0-7-6-5-|-0-6-6-5-|


              2x
|-----13---13---12---------10---10-|
|--10--------------13---10---------|
|----------------------------------|
|----------------------------------|
|----------------------------------|
|----------------------------------|

               1x
|-----13---13---12---------|-10----10----10----10----|
|--10--------------13~~~10-|----10----10----10----10-| 
|--------------------------|-------------------------|
|--------------------------|-------------------------|
|--------------------------|-------------------------|
|--------------------------|-------------------------|


    chorus  8x
|---------|---------|
|---------|---------|
|---------|---------|
|---------|---------|
|-0-7-6-5-|-0-6-6-5-|
|-0-7-6-5-|-0-6-6-5-|


bridge  8x
|----------|  
|----------|
|----------|  (1:47)
|----------|
|-1----1-0-|
|-1----1-0-|

 
     outro      12x
|-------------|---------------|
|-------------|---------------|    gets faster
|-------------|---------------| 
|-------------|---------------|   (1:58)
|-1----x--1-0-|-1-0----x--0-0-|
|-1----x--1-0-|-1-0----x--0-0-|
          p.m _ _         _ _


intro-8x
riff1-3x
riff2-1x
chorus-8x
riff1-2x
riff2-1x
chours-8x
birdge-8x
outro-12x
Suggest correction
comments
print report bad tab
7 comments total. Showing first comments.
0 reply
slipknot_133 10 Feb 07, 2002 07:00 PM

were at WAR?

0 reply
BongHead 50 Feb 14, 2003 07:00 PM

syStem of a down
sy-S-tem with an S after the Y

+1 reply
MisterJack 10 Aug 30, 2011 04:59 PM

I believe riff 1 is actually a whole step down
riff 1 3x
|-----11---11---10--------8---8-|
|--8--------------11---8--------|
|---------------------------------|
|---------------------------------|
|---------------------------------|
|---------------------------------|

guest
You may want to rate the tab now too:
select rating
Wanna post a correction for this tab? Suggest correction