Oops, an error
Loading. Please wait.

Suggestions Tab

version 1
version 1
39,362 views 57 this week
8 commentsread comments
1 2 3 4 5
x 24
add to favorites
launch autoscroll
font size
0
reset
how to read this tab
guitar tuner
backing track
0:00
0:00
×
Best way to learn
"Suggestions"
Autoscroll
slow
fast
+/-
esc
set tempo
stop
Tune down to:CGCFAD

[Intro]
e|---7---7--|
B|-----0----|
G|-9--------| (4x)
D|----------|
A|----------|
E|----------|

e|---7---7--|
B|-----0----|
G|-10-------|  (4x)
D|----------|
A|----------|
E|----------|

[Verse]
e|------------------------|                       
B|------------------------|                       
G|------------------------|                       
D|----9----9----9----9----|     
A|-7----0----7----0----7--|                       
E|------------------------|                       
                                                                      
e|------------------------|                     
B|------------------------|                       
G|------------------------|                       
D|----9----9----9----9----|   
A|-8----0----8----0----8--|                       
E|------------------------|                       

[Chorus]
e|----------------------------------------------|
B|----------------------------------------------|
G|----------------------------------------------|
D|-22---------------------33--------------------|
A|-22--repeat as needed---33---repeat as needed-|
E|-22---------------------33--------------------|

[Verse]
e|------------------------|                       
B|------------------------|                       
G|------------------------|                       
D|----9----9----9----9----|     
A|-7----0----7----0----7--|                       
E|------------------------|                       
                                                                      
e|------------------------|                     
B|------------------------|                       
G|------------------------|                       
D|----9----9----9----9----|   
A|-8----0----8----0----8--|                       
E|------------------------|                       

[Chorus]
e|----------------------------------------------|
B|----------------------------------------------|
G|----------------------------------------------|
D|-22---------------------33--------------------|
A|-22--repeat as needed---33---repeat as needed-|
E|-22---------------------33--------------------|

e|---------------------------------------------|
B|---------------------------------------------|
G|-8---------------------11--------------------|
D|-x- repeat as needed --x-  repeat as needed--| (2x)
A|-6---------------------9---------------------|
E|---------------------------------------------|

[Instrumental]
e|----------------------------------------------|
B|----------------------------------------------|
G|----------------------------------------------|
D|-22---------------------33--------------------|
A|-22--repeat as needed---33---repeat as needed-|
E|-22---------------------33--------------------|

e|----------------------------------------------|
B|----------------------------------------------|
G|---------------4--------------------5---------| 
D|-22222222222222-------33333333333333----------|
A|----------------------------------------------|
E|----------------------------------------------|

[Verse]
e|------------------------|                       
B|------------------------|                       
G|------------------------|                       
D|----9----9----9----9----|     
A|-7----0----7----0----7--|                       
E|------------------------|                       
                                                                      
e|------------------------|                     
B|------------------------|                       
G|------------------------|                       
D|----9----9----9----9----|   
A|-8----0----8----0----8--|                       
E|------------------------|                       

[Chorus]
e|----------------------------------------------|
B|----------------------------------------------|
G|----------------------------------------------|
D|-22---------------------33--------------------|
A|-22--repeat as needed---33---repeat as needed-|
E|-22---------------------33--------------------|

e|---------------------------------------------|
B|---------------------------------------------|
G|-8---------------------11--------------------|
D|-x- repeat as needed --x-  repeat as needed--| (2x)
A|-6---------------------9---------------------|
E|---------------------------------------------|

e|---------------------------------------------|
B|---------------------------------------------|
G|-8---------------------11--------------------|
D|-x- repeat as needed --x-  repeat as needed--| (2x)
A|-6---------------------9---------------------|
E|---------------------------------------------|


************************************

| x  Dead note

************************************
Suggest correction
comments
print report bad tab
8 comments total. Showing first comments.
-1 reply
McCguitar 50 May 18, 2003 12:00 AM

Whoops my bad, take out the extra 9
at the end of intro riff, and that last ten on the intro riff then repeat,

-1 reply
Neotabber-V3 30 Mar 01, 2005 12:00 AM

|----------------------------------------------|
|----------------------------------------------|
|---------------4--------------------5---------| repeat as needed
|-22222222222222-------33333333333333----------|
|----------------------------------------------|
|----------------------------------------------|

That bit is wrong :P

it goes

|----------------------------------------------|
|----------------------------------------------|
|999999999-9-1010101010-10---------------------|
|----------------------------------------------|
|777777777---8888888888------------------------|
|----------------------------------------------|

|----------------------------------------------|
|----------------------------------------------|
|999999999-9-1010101010101010101010------------|
|----------------------------------------------|
|777777777---8888888888888888888888------------|
|----------------------------------------------|

I never could figure out the intro, good work.

-1 reply
Neotabber-V3 30 Mar 01, 2005 12:00 AM

Crap, my bad.

play this instead

|----------------------------------------------|
|----------------------------------------------|
|----------------------------------------------|
|999999999-9-1010101010-10---------------------|
|777777777---8888888888------------------------|
|----------------------------------------------|

|----------------------------------------------|
|----------------------------------------------|
|----------------------------------------------|
|999999999-9-1010101010101010101010------------|
|777777777---8888888888888888888888------------|
|----------------------------------------------|

My bad.

guest
You may want to rate the tab now too:
select rating
Wanna post a correction for this tab? Suggest correction