Oops, an error
Loading. Please wait.
We have an official Suggestions tab made by UG professional guitarists. Check out the tab »
×
12,477 views 6 this week
3 commentsread comments
1 2 3 4 5
x 11
add to favorites
×
Save as Personal and add changes to this tab that will be seen only by you. Learn more ›
×
You can save this tab as Personal to edit and correct it or add notes. All changes will be seen only by you. Learn more »
launch autoscroll
font size
0
reset
how to read this tab
guitar tuner
backing track
0:00
0:00
edit
Autoscroll
slow
fast
+/-
esc
set tempo
stop
                     System of a Down-Suggestions
By:Daron.Malakian
Intro:Clean X2
D|--------------------------------------------------------|
A|-----0-----0------0-----0------0------0------0------0---|
F|---16-16-16-16--16-16-16-16--16-16--16-16--16-16--16-16-|
C|-14-----14----14-----14----15-----15-----15-----15------|
G|--------------------------------------------------------|
C|--------------------------------------------------------|

Verse:Clean X4
D|---------------------------------|
A|---------------------------------|
F|---------------------------------|
C|--9-9-9-9-9-9-9-9-9-9-9-9-9-9-9--|
G|-7-0-7-0-7-0-7-0-8-0-8-0-8-0-8-0-|
C|---------------------------------|
PM---------------------------------

Chorus:Heavy Distorsion X2
D|----------------------------------------------------|
A|----------------------------------------------------|
F|----------------------------------------------------|
C|-2---2---2---2--2-2-2-2-2--3---3---3---3--3-3-3-3-3-|
G|-2---2---2---2--2-2-2-2-2--3---3---3---3--3-3-3-3-3-|
C|-2---2---2---2--2-2-2-2-2--3---3---3---3--3-3-3-3-3-|

Verse:Clean X4
D|---------------------------------|
A|---------------------------------|
F|---------------------------------|
C|--9-9-9-9-9-9-9-9-9-9-9-9-9-9-9--|
G|-7-0-7-0-7-0-7-0-8-0-8-0-8-0-8-0-|
C|---------------------------------|
PM---------------------------------

Chorus:Heavy Distorsion X2
D|----------------------------------------------------|
A|----------------------------------------------------|
F|----------------------------------------------------|
C|-2---2---2---2--2-2-2-2-2--3---3---3---3--3-3-3-3-3-|
G|-2---2---2---2--2-2-2-2-2--3---3---3---3--3-3-3-3-3-|
C|-2---2---2---2--2-2-2-2-2--3---3---3---3--3-3-3-3-3-|

Interlude:Heavy Distorsion x2
D|--------------------------------------------------------------------------|
A|--------------------------------------------------------------------------|
F|8-8-8-8-8-8-8-8-8-8-8-8-8-8-8-11-11-11-11-11-11-11-11-11-11-11-11-11-11-11|
C|x-x-x-x-x-x-x-x-x-x-x-x-x-x-x-x--x--x--x--x--x--x--x--x--x--x--x--x--x--x-|
G|7-7-7-7-7-7-7-7-7-7-7-7-7-7-7-10-10-10-10-10-10-10-10-10-10-10-10-10-10-10|
C|--------------------------------------------------------------------------|

Bridge:Clean X2
D|-----------------------------------------------------------------|
A|-----0-------0-------0-------0-------0-------0-------0-------0---|
F|---4---4---4---4---4---4---4---4---4---4---4---4---4---4---4---4-|
C|-2-------2-------2-------2-------3-------3-------3-------3-------|
G|-----------------------------------------------------------------|
C|-----------------------------------------------------------------|

Bridge 2:Clean X1
D|---------0-----|
A|--------0------|
F|-------4-------|
C|------3--------|
G|---------------|
C|---------------|
Let Ring---------

Verse 2:Heavy Distorsion X2
D|------------------------------------------------|
A|------------------------------------------------|
F|------------------------------------------------|
C|-2---2--2-2-2-2-2-2-2-2--3---3--3-3-3-3-3-3-3-3-|
G|-2---2--2-2-2-2-2-2-2-2--3---3--3-3-3-3-3-3-3-3-|
C|-2---2--2-2-2-2-2-2-2-2--3---3--3-3-3-3-3-3-3-3-|

Verse 3:Heavy Distorsion X1
D|-------------------------------------------------------------------|
A|-------------------------------------------------------------------|
F|-------------------------------------------------------------------|
C|-------------------------------9--------------------------------10-|
G|-7-7-7-7-7-7-7-7-7-7-7-7-7-7-7-7--8-8-8-8-8-8-8-8-8-8-8-8-8-8-8-8--|
C|-------------------------------------------------------------------|

D|------------------------------------------------------------------------|
A|------------------------------------------------------------------------|
F|------------------------------------------------------------------------|
C|-------------------------------9------------------------------1010101010|
G|-7-7-7-7-7-7-7-7-7-7-7-7-7-7-7-7--8-8-8-8-8-8-8-8-8-8-8-8-8-8-8-8-8-8-8-|
C|------------------------------------------------------------------------|

Verse:Clean X4
D|---------------------------------|
A|---------------------------------|
F|---------------------------------|
C|--9-9-9-9-9-9-9-9-9-9-9-9-9-9-9--|
G|-7-0-7-0-7-0-7-0-8-0-8-0-8-0-8-0-|
C|---------------------------------|
PM---------------------------------

Chorus:Heavy Distorsion X2
D|----------------------------------------------------|
A|----------------------------------------------------|
F|----------------------------------------------------|
C|-2---2---2---2--2-2-2-2-2--3---3---3---3--3-3-3-3-3-|
G|-2---2---2---2--2-2-2-2-2--3---3---3---3--3-3-3-3-3-|
C|-2---2---2---2--2-2-2-2-2--3---3---3---3--3-3-3-3-3-|

Outro:Heavy Distorsion X2
D|--------------------------------------------------------------------------|
A|--------------------------------------------------------------------------|
F|8-8-8-8-8-8-8-8-8-8-8-8-8-8-8-11-11-11-11-11-11-11-11-11-11-11-11-11-11-11|
C|x-x-x-x-x-x-x-x-x-x-x-x-x-x-x-x--x--x--x--x--x--x--x--x--x--x--x--x--x--x-|
G|7-7-7-7-7-7-7-7-7-7-7-7-7-7-7-10-10-10-10-10-10-10-10-10-10-10-10-10-10-10|
C|--------------------------------------------------------------------------|

Outro 2:Heavy Distorsion X1
D|----------------------------|
A|----------------------------|
F|----------------------------|
C|-2--------------------------|
G|-2--------------------------|
C|-2--------------------------|
Let Ring----------------------

That's how I play it.

Watching,
From a post up high,
From where you see the ships afar,
From a well trained eye,
The waves all keep on crashing by,
If you are the light post,
Then you own the working class,
But if you want the answers,
You better give a piece of ass,
Give a piece of your ass,

Warning,
Post hypnotic suggestions,
Running the ships ashore,
The orange light that follows,
Will soon proclaim itself a god,
If you point your questions,
The fog will surely chew you up,
But if you want the answers,
You better get ready for the fire,
Get ready for the fire,

The ships are multiplying day after day sir,
And they're coming close to the shore sir, shore sir,
We need to evacuate the light post,
It's all over,OVER!
It's all over
woaoaoaoaoa woaoaoaoaoa
woaoaoaoaoa (scream. 

            
            
Suggest correction
Creating personal tab
Creating personal tab
You can edit any tab online and save it as your Personal.

You can edit, replace or remove any tab part or add personal notes – all changes will be seen only by you.

Personal tabs can be accessed anytime from any device, even offline.
Learn more »
comments
print report bad tab
3 comments total.
0 reply
MethLabForCutie 10 Jun 28, 2010 06:59 PM

beautiful tab

0 reply
deathfromala 5,576 Feb 11, 2012 03:48 PM

yes well done.. i was just going to do this tab but see if anyone else had done it... this is exactlly how it is played... all utube vids of daron doing this ar exactlly this... well done 5/5

0 reply
Macheeoo 2,049 Aug 04, 2014 12:17 PM

Great tab... Also everyone who's commented on this has the same SOAD profile!

guest
You may want to rate the tab now too:
select rating
Wanna post a correction for this tab? Suggest correction