Oops, an error
Loading. Please wait.

Temper Tab

version 1
version 1

Whole song

Interactive

10,944 views 24 this week
9 commentsread comments
1 2 3 4 5
x 7
add to favorites
launch autoscroll
font size
0
reset
how to read this tab
guitar tuner
×
Best way to learn
"Temper"
Autoscroll
slow
fast
+/-
esc
set tempo
stop
Author
System Of A Down
"Temper"
Tab by Emiliano "RaTa" Dimmer
Tuning: Droip In C (CGCFAD)

Intro:

|-------------------------------------------1----
|-----------------3-3-1-----1-----1---3---3---4--
|--3-3-2-0...--0-2-0-------3-3---3-3---3---3-----
|------------------------------------------------
|------------------------------------------------
|------------------------------------------------

|-3-1--56-5-------------|-----------
|-----------3--3-4-4-3--|--4-3---x5-  Listen the song to play this  
|-----------------------|-----------  part.
|-----------------------|-----------
|-----------------------|-----------
|-----------------------|-----------

Heavy Part:

|-----------------------------------
|-----------------------------------
|-----------------------------------
|----------------------------------- Repeat this part as nesesary
|--2-2-2-2-3-5-2-2-2-2-3-5----------
|--2-2-2-2-3-5-2-2-2-2-3-5----------

Solo:
|---------------------------------------------
|------1-3-1---1----------------------1-----3-
|--3-3-------3---3-2--2--0-0...-0-2-3---2-----
|-----------------------------------------3---
|---------------------------------------------
|---------------------------------------------

|------1--------------------------------------
|--3-4---4-3-1-3-4-3----1-3-1---1--4-3--------
|---------------------3-------3---------------
|---------------------------------------------
|---------------------------------------------
|---------------------------------------------

Operatic:

|----------    |------2-3-2------------------------
|-3-3-3-3-4 X4 |--3-4-------3-4-3------------------
|----------    |-----------------------------------
|----------    |-----------------------------------
|----------    |-----------------------------------
|----------    |-----------------------------------
\____  ____/    \_______  _______/
     \/                 \/
Palm Muted          Very Fast


Emiliano "RaTa" Dimmer, Argentina.
Suggest correction
comments
print report bad tab
9 comments total. Showing first comments.
0 reply
SOADfreak2008 30 Dec 20, 2002 07:00 PM

Temper intro for bass
(GDAE)

|0---0---3--1-1/3-3/5-|
|-0----0--------------|
|---------------------|
|---------------------|

Listen to the song to get the number of times

0 reply
ZeeGerman 10 Dec 21, 2002 07:00 PM

Hey i need help with the timing to this song, it doesnt make sense to me

0 reply
RaTa 50 Feb 09, 2006 06:54 AM

im sorry, you may have to listen the song and try to help with this tab, or download the Guitar Pro and the tab of SOAD. Try it, sorry for the years of waiting.

guest
You may want to rate the tab now too:
select rating
Wanna post a correction for this tab? Suggest correction