Oops, an error
Loading. Please wait.
We have an official Tentative tab made by UG professional guitarists. Check out the tab »
×
4,584 views 1 this week
3 commentsread comments
1 2 3 4 5
x 9
add to favorites
×
Save as Personal and add changes to this tab that will be seen only by you. Learn more ›
×
You can save this tab as Personal to edit and correct it or add notes. All changes will be seen only by you. Learn more »
launch autoscroll
font size
0
reset
guitar tuner
edit
Autoscroll
slow
fast
+/-
esc
set tempo
stop
Author
Difficulty
Band - System Of A Down
 Song - Tentative
  Album - Hypnotize
   Tuning - Drop Db (Db-Ab-Db-Gb)

   No bass tabs for this so far, so I thought I'd have a go at it! This song is mainly 
notes from the guitar with some changes. Enjoy it!!

  Legend - ~ - let note ring
           / - slide up the neck to note

  INTRO - guitar untill the little drumroll. [0:00 - 0:05]

VERSE - x 6 [0:05 - 0:23]
Gb  --------------------------------------|
Db  --------------------------------------|
Ab  --------------------------------------|
Db  -10/12--12-12-000000-12-12-12-00000000| <- tremolo on the 0's
      |
Do this only the 1st time.

PRECHORUS - x 1 [0:24 - 0:35]
Gb  ---------|--------|--------|--------|
Db  ---------|--------|--------|--------|
Ab  ---------|--------|--------|--------|
Db  -00-00000|00-00000|77-77777|77-77777|
                                             -I inserted the bars to
Gb  ---------|--------|----------------|  help you understand the rhythm
Db  ---------|--------|----------------|  the riff is being played at.
Ab  -88-88888|88-88888|----------------|
Db  ---------|--------|7777777777777777|

CHORUS 1 - x 1 [0:36 - 0:48]
Gb  -------------------------|
Db  -------------------------|
Ab  ----------------8~-------|
Db  -0~---8~---7~------10~---|

VERSE - x 6 [0:48 - 1:06]
Gb  -------------------------------|
Db  -------------------------------|
Ab  -------------------------------|
Db  -12-12-000000-12-12-12-00000000|

PRECHORUS - x 1 [1:07 - 1:18]
Gb  ---------|--------|--------|--------|
Db  ---------|--------|--------|--------|
Ab  ---------|--------|--------|--------|
Db  -00-00000|00-00000|77-77777|77-77777|

Gb  ---------|--------|----------------|
Db  ---------|--------|----------------|
Ab  -88-88888|88-88888|----------------|
Db  ---------|--------|7777777777777777|

CHORUS 2 - x 2 [1:19 - 1:42]
Gb  -----------------------------|
Db  -----------------------------|
Ab  --------------------8~-------|
Db  -0~-008~---887~---77---10~---|

BRIDGE - x4 [1:43 - 2:33]
Gb  -------------------------|
Db  -------------------------|  (This is played softer than chorus 1 yet
Ab  ----------------8~-------|  at the same tempo!!)
Db  -0~---8~---7~------10~---|
    *Just to help you with timing, the Ab 8 and Db 10 are hit on the words
 "Where" and "go" respectively each time that is sung.*

VERSE - x3 [2:34 - 2:42]
Gb  -------------------------------|
Db  -------------------------------|
Ab  -------------------------------|
Db  -12-12-000000-12-12-12-00000000|

MODIFIED VERSE - x1 [2:43 - 2:48]
Gb  -----------------------------------------------|
Db  -----------------------------------------------|
Ab  -----------------------------------------------|
Db  -12-12-000000-12-00-12-00-12-00-12-00-12-00-12~|

OUTRO - x1 [2:49 - 3:19]
Gb  -----------------------------|
Db  -----------------------------|
Ab  --------------------8~-------|
Db  -0~-008~---887~---77---10~---|

Gb  -----------------------------|
Db  -----------------------------|
Ab  --------------------8~-------|
Db  -0~-008~---887~---77---10~---|

Gb  ----------------------------|
Db  ----------------------------|
Ab  -----------8~---------------|
Db  -7-7-7-7-77---10~---0~~~~~~~|
     |
 Play these 4 notes on the words "No one saved us"


 [3:20 - 3:36] - guitar and vocals

  Looks perfect to me. Rate it up!

            
            
Suggest correction
Creating personal tab
Creating personal tab
You can edit any tab online and save it as your Personal.

You can edit, replace or remove any tab part or add personal notes – all changes will be seen only by you.

Personal tabs can be accessed anytime from any device, even offline.
Learn more »
comments
print report bad tab
3 comments total.
0 reply
HateFizt 73 Jul 12, 2007 07:54 PM

Man this looks like perfect but.. I'm sure you missed sme things like the bass-like intro with drum roll, and that fill when Daron finish singing: "When they call and they said that they though he was dead" ther' is a descending bass part. Buyt whatever good job with this! 5 stars indeed!

0 reply
HateFizt 73 Jul 12, 2007 07:59 PM

Jajaja oops, my bad man, i coinfused this song with Dreanming xD What an áss-hole... Sorry man, then indeed this is perfectly a good work.

0 reply
Danny Wolf 10 Mar 23, 2010 05:09 AM

El perfecto! A couple missing "showy" notes on the chorus, but those can be easily picked up from the song ^^

guest
You may want to rate the tab now too:
select rating
Wanna post a correction for this tab? Suggest correction