Oops, an error
Loading. Please wait.
We have an official Tentative tab made by UG professional guitarists. Check out the tab »
×
3,855 views 3 this week
5 commentsread comments
1 2 3 4 5
x 7
add to favorites
×
Save as Personal and add changes to this tab that will be seen only by you. Learn more ›
×
You can save this tab as Personal to edit and correct it or add notes. All changes will be seen only by you. Learn more »
launch autoscroll
font size
0
reset
how to read this tab
guitar tuner
edit
Autoscroll
slow
fast
+/-
esc
set tempo
stop
This Is My First Tab So Tell Me What You Think

Tuning Dropped Db


Intro
|--------------------------------------------------------------------------|
|--------------------------------------------------------------------------|
|12-12-----------12-12---------------12-12------------12-12----------------|
|12-12-----------12-12---------------12-12------------12-12----------------|
|10-10-----------10-10---------------10-10------------10-10----3h2p0-------|
|------000000000-------0000000000000-------0000000000------0000-----3h2/1p0|

            
            
Suggest correction
Creating personal tab
Creating personal tab
You can edit any tab online and save it as your Personal.

You can edit, replace or remove any tab part or add personal notes – all changes will be seen only by you.

Personal tabs can be accessed anytime from any device, even offline.
Learn more »
comments
print report bad tab
5 comments total. Showing first comments.
-1 reply
shotgunjoe 234 Nov 19, 2005 02:22 AM

What I play for the intro is:

-3-3-----------------3-3-3-
-3-3-----------------3-3-3-
---------------------------
--------------------------- x 2.
---------------------------
-----0-0-0-0-0-0-0-0-------

It works for me, may work for you too.

0 reply
nirvana4lf 142 Nov 21, 2005 03:51 PM

noooooooooo both wrong. that chord thing sounds like its a diminished 5th. its certainly no regular 5th chord...

0 reply
Phildo64 10 Dec 12, 2005 11:59 PM

BOTH WRONG!!! HERE LEMME MAKE AN INTRO

guest
You may want to rate the tab now too:
select rating
Wanna post a correction for this tab? Suggest correction