Oops, an error
Loading. Please wait.
We have an official This Cocaine Makes Me Feel Like Im On This Song tab made by UG professional guitarists. Check out the tab »
×

This Cocaine Makes Me Feel Like Im On This Song bass

3,225 views 3 this week
2 commentsread comments
1 2 3 4 5
x 13
add to favorites
×
Save as Personal and add changes to this tab that will be seen only by you. Learn more ›
×
You can save this tab as Personal to edit and correct it or add notes. All changes will be seen only by you. Learn more »
launch autoscroll
font size
0
reset
guitar tuner
edit
Autoscroll
slow
fast
+/-
esc
set tempo
stop
Author
Difficulty
Intro
Gb|------------------------------------|
Db|------------------------------------|
Ab|------------------------------------| 3x
Db|-6-6--4-7-6-6--4-6-7-7--9-7-6-6--4-7|

Riff 1
Gb|--------------------|
Db|--------------------|
Ab|--------------------| 4x
Db|-10-9-10-9-10-9-10-9|

Gb|------------------------|
Db|------------------------|
Ab|------------------------| 4x
Db|-12-11-12-11-12-11-12-11|

Riff 2
Gb|---|---------|--------------|
Db|---|---------|--------------|
Ab|---|--Pause--|--------------|
Db|-7-|---------|-7--7--7-7-7-7|

Gb|--------------------------------|
Db|--------------------------------|
Ab|-----------FAST!!---------------| 2x
Db|-6-6-6-6-6-6-6-6-6-6-6-6-6-6-6-6|

Gb|--------------|
Db|--------------|
Ab|--------------|
Db|-7--7--7-7-7-7|

Riff 1
Gb|--------------------|
Db|--------------------|
Ab|--------------------| 4x
Db|-10-9-10-9-10-9-10-9|

Gb|------------------------|
Db|------------------------|
Ab|------------------------| 4x
Db|-12-11-12-11-12-11-12-11|

Riff 3/Intro
Gb|------------------------------------|
Db|------------------------------------|
Ab|------------------------------------| 2x
Db|-6-6--4-7-6-6--4-6-7-7--9-7-6-6--4-7|

Riff 1
Gb|--------------------|
Db|--------------------|
Ab|--------------------| 4x
Db|-10-9-10-9-10-9-10-9|

Gb|------------------------|
Db|------------------------|
Ab|------------------------| 4x
Db|-12-11-12-11-12-11-12-11|

Riff 4
Gb|---|---------|--------------|
Db|---|---------|--------------|
Ab|---|--Pause--|--------------|
Db|-7-|---------|-7--7--7-7-7-7|

Gb|--------------------------------|
Db|--------------------------------|
Ab|-----------FAST!!---------------| 2x
Db|-6-6-6-6-6-6-6-6-6-6-6-6-6-6-6-6|

Gb|--------------------------------|
Db|--------------------------------|
Ab|-----------FAST!!---------------| 
Db|-6-6-6-6-5-5-5-5-4-4-4-4-3-3-3-3|

Gb|--------------|
Db|--------------|
Ab|--------------|
Db|-7--7--7-7-7-7|

Riff 1
Gb|--------------------|
Db|--------------------|
Ab|--------------------| 4x
Db|-10-9-10-9-10-9-10-9|

Gb|------------------------|
Db|------------------------|
Ab|------------------------| 4x
Db|-12-11-12-11-12-11-12-11|

Outro
Gb|------------------------------------|
Db|------------------------------------|
Ab|------------------------------------|
Db|-6-6--4-7-6-6--4-6-7-7--9-7-6-6--4-7|

Gb|---------------------------------------|
Db|---------------------------------------|
Ab|---------------------------------------|
Db|-6-6--4-7-6-6--4-6-7-7--9-7-6-6--4-77-6|

One of my favorite songs.
pretty easy. have fun!

            
            
Suggest correction
Creating personal tab
Creating personal tab
You can edit any tab online and save it as your Personal.

You can edit, replace or remove any tab part or add personal notes – all changes will be seen only by you.

Personal tabs can be accessed anytime from any device, even offline.
Learn more »
comments
print report bad tab
2 comments total.
0 reply
Lobassopalypse 20 Jan 02, 2010 08:01 AM

I think this part:

Gb|--------------------|
Db|--------------------|
Ab|--------------------|
Db|-10-9-10-9-10-9-10-9|
Is easier with just holding onto the 9th fret and hammering on 10th fret then after with the 11th and hammering on 12th fret in time but thats just my preference. Very good though!

0 reply
bslaughter 10 Sep 25, 2010 09:58 PM

why would you tune down when can the song in standard tuning

guest
You may want to rate the tab now too:
select rating
Wanna post a correction for this tab? Suggest correction