Oops, an error
Loading. Please wait.

Toxicity Bass Tab

version 1
version 1
67,901 views 9 this week
7 commentsread comments
1 2 3 4 5
x 12
add to favorites
launch autoscroll
font size
0
reset
guitar tuner
Autoscroll
slow
fast
+/-
esc
set tempo
stop
Help us to improve Ultimate-Guitar.com Take our survey!
×
Band- System of A Down
Album- Toxicity

1.PRISON SONG

Intro
F|-------|
C|-------|
G|-------|
C|---0---|

F|------------ r -----------------------------------------------------|
C|------------ e -----------------------------------------------------|
G|------------ s -----------------------------------------------1111--|
C|------------ t -------------------0-1-3-1-0-1-3-1-0-1-3-1-0-1-------| X2

F|------------ r -----------------------------------------------------|
C|------------ e -----------------------------------------------------|
G|------------ s -----------------------------------------------1111--|
C|------------ t -------------------0-1-3-1-0-1-3-1-0-1-3-1-----------|

F|------------------------------------|
C|------------------------------------|
G|------------------------------1111--|
C|---0103010-0103010-0103010-010------| X2

F|--------------------------------------------------------------------|
C|--------------------------------------------------------------------|
G|------------------------------1111----------------------------1111--|
C|--0-1-3-1-0-1-3-1-0-1-3-1-0-1------0103010-0103010-0103010-010------|

Verse 1
F|--------------------|     F|--------------------|
C|--------------------|     C|--------------------|
G|--5565556555658565--|     G|--5---6---5-6-8-6---|
C|--------------------| X4  C|--------------------| X2

F|------------------------------------|
C|------------------------------------|
G|--556555655565856555655565----------|
C|---------------------------0103010--|

Chorus 1
F|------------------------------------|
C|------------------------------------|
G|------------------------------1111--|
C|---0103010-0103010-0103010-010------| X2

Verse 2
F|--------------------|     F|--------------------|
C|--------------------|     C|--------------------|
G|--556555655565856---|     G|--5---6---5-6-8-6---|
C|--------------------| X4  C|--------------------| X2

F|------------------------------------|
C|------------------------------------|
G|--556555655565856555655565----------|
C|---------------------------0103010--|

Chorus 2
F|------------------------------------|
C|------------------------------------|
G|------------------------------1111--|
C|---0103010-0103010-0103010-010------| X2

F|--------------------------------------------------------------------|
C|--------------------------------------------------------------------|
G|------------------------------1111----------------------------1~----|
C|--0-1-3-1-0-1-3-1-0-1-3-1-0-1------0103010-0103010-0103010-010------|

Bridge
F|------------------------------------|
C|------------------------------------|
G|------------------------------1111--|
C|--0-0-0-0-0-0-0-0-0-0-0-0-0-0-------| X2

F|------------------------------------|
C|------------------------------------|
G|------------------------------1111--|
C|--0-0----00-0----00-0----00-0-------| X4

F|--------------------|     F|--------------------|     F|--------------------|
C|--------------------|     C|--------------------|     C|--------------------|
G|--------------------|     G|--5565556555658565--|     G|--55655565----------|
C|--0---1---0-1-3-1---| X4  C|--------------------| X3  C|-----------0103010--|

Chorus 3
F|------------------------------------|
C|------------------------------------|
G|------------------------------1111--|
C|---0103010-0103010-0103010-010------| X2

F|--------------------------------------------------------------------------------|
C|--------------------------------------------------------------------------------|
G|------------------------------1111----------------------------1~------0~--5~----|
C|--0-1-3-1-0-1-3-1-0-1-3-1-0-1------0103010-0103010-0103010-010------------------|

2.NEEDLES

riff I
      t          t          t          t
F|-----------------------------------------------|
C|-----------------------------------------------|
G|-----------------------------------------------|
C|--555-565656-555-565656-555-565656-555-565656--|

riff II
       t   t   t   t   x2
F||-------------------||
C||*-----------------*||
G||*-----------------*||
C||--000-550-660-550--||

riff I
riff II

riff III
F||---------------------------------------||
C||*-------------------------------------*||
G||*-------------------------------------*||
C||--5-6-5-6-5-6-5-6-5-6-5-6-5-6-5-6-(5)--||
                                       *skip note 2nd time

riff II x2
riff III  once, without last note

riff IV
F||-----------------------------------------||
C||*---------------------------------------*||
G||*---------------------------------------*||
C||--5-5--//13\\--1-1--//13\\--/6\-/6\-/6\--||

riff V                   x2
F||----------------||
C||*--------------*||
G||*--------------*||
C||--55-5\3-/66-5--||

riff I
riff II
riff III
riff II
riff III once, without last note
riff IV
riff V

riff VI                x4
F||--------------||
C||*------------*||
G||*------------*||
C||--5--1--4--0--||

riff I
riff II
riff IV
riff V

F||-----------------|--------------||
C||*----------------|-------------*||
G||*----------------|-------------*||
C||--(5)55-66-88-66-|-55-33-66-55--||
      *play first time only, as triplet

F||---------------------------||
C||*-------------------------*||
G||*-------------------------*||
C||--56-56-56-56-56-56-56-56--||

3.DEER DANCE

Bass fig. 1 .............................
                                      4x
||------------------------------------||
||-*--------------------------------*-||
||-*--------------------------------*-||
||---1-1-0---1---0---1---0---1--------||
...................................................................
|--------------------------------|--------------------------------|
|--------------------------------|--------------------------------|
|--------------------------------|--------------------------------|
|1---0---1---0---1---0---1---0---|1---0---1---0---1---0---1---0---|

.................................................................|
|--------------------------------|--------------------------------|
|--------------------------------|--------------------------------|
|--------------------------------|--------------------------------|
|1---0---1---0---1---0---1-------|1---0---1---0---1---0---1-------|

Bass fig. 2 ....................................................|
|--------------------------------|--------------------------------|
|--------------------------------|--------------------------------|
|--------------------------------|--------------------------------|
|5/------8\------3/------7\------|1/------5\------0---------------|

Bass fig. 3 ......................................................
|--------------------------------|--------------------------------|
|--------------------------------|--------------------------------|
|--------------------------------|--------------------------------|
|5-5-5-5-8-8-8-8-3-3-3-3-7-7-7-7-|1-1-1-1-5-5-5-5-0-0-0-0-0-0-0-0-|

.................................................................|
|--------------------------------|--------------------------------|
|--------------------------------|--------------------------------|
|--------------------------------|--------------------------------|
|5-5-5-5-8-8-8-8-3-3-3-3-7-7-7-7-|1-1-1-1-5-5-5-5-0---------------|

Bass fig. 4 .....................................................
|--------------------------------|--------------------------------|
|--------------------------------|--------------------------------|
|--------------------------------|--------------------------------|
|5---5---5---5---5---5---5---5---|5---5---5---5---5---5---5---5---|

.................................................................|
|--------------------------------|--------------------------------|
|--------------------------------|--------------------------------|
|--------------------------------|--------------------------------|
|5---5---5---5---5---5---5---5---|5---5---5---5---5---5---5---0---|

Bass fig. 5 .....................................................
|--------------------------------|--------------------------------|
|--------------------------------|--------------------------------|
|--------------------------------|--------------------------------|
|3---3---3---3---3---3---3---3---|3---3---3---3---3---3---3---3---|

.................................................................|
|--------------------------------|--------------------------------|
|--------------------------------|--------------------------------|
|--------------------------------|--------------------------------|
|3---3---3---3---3---3---3---3---|3---3---3---3---3---3---3---0---|

Bass fig. 6 .....................................................
|--------------------------------|--------------------------------|
|--------------------------------|--------------------------------|
|--------------------------------|--------------------------------|
|3---3---3---3---3---3---3---3---|3---3---3---3---3---3---3---0---|

.................................................................|
|--------------------------------|--------------------------------|
|--------------------------------|--------------------------------|
|--------------------------------|--------------------------------|
|1---1---1---1---1---1---1---0---|3---3---3---3---3---3---3---0---|

Bass fig. 7
|--------------------------------|
|--------------------------------|
|--------------------------------|
|-5------------------------------|

Bass fig. 8 ....................................................|
|--------------------------------|--------------------------------|
|--------------------------------|--------------------------------|
|--------------------------------|--------------------------------|
|1---0---1---0---1---0---1---0---|1---0---1---0---1---0---1-------|

4.JET PILOT

Riff 1
-------------------------|
-------------------------|
6------------------------|
--00-1/6-0-0-------------|
Riff 2
----------------------|
----------------------|
----------------------|
1-0-1/6-1-1/8---------|
Riff 3
----------------------|
----------------------|
----------------------|
56565-3---------------|

5.X

F|----------------|
C|----------------|
G|--5--55--5--55--|
C|----------------|

riff I
                                    x2                    end riff I
F|----------------------------------------|---------------------------------------|
C|----------------------------------------|---------------------------------------|
G|------------/8-8-8-8--------------5h6-6-|------------/8-8-8-8-------------6-6-6-|
C|-0--0--0-0-0---------0-0-0--0-0-0-------|-0--0--0-0-0---------0-0-0--0-0-0------|

riff II
            x16
F|-----------|
C|-----------|
G|--3-5-6-5--|
C|-----------|

riff I (play first bar once)
play riff II 24 times
riff I (this time, only play first bar. play it twice)

 Mxtabs [http://www.mxtabs.net]
F|----------------|
C|----------------|
G|--5--55--5--55--|
C|----------------|

riff I
                                    x2                    end riff I
F|----------------------------------------|---------------------------------------|
C|----------------------------------------|---------------------------------------|
G|------------/8-8-8-8--------------5h6-6-|------------/8-8-8-8-------------6-6-6-|
C|-0--0--0-0-0---------0-0-0--0-0-0-------|-0--0--0-0-0---------0-0-0--0-0-0------|

riff II
            x16
F|-----------|
C|-----------|
G|--3-5-6-5--|
C|-----------|

riff I (play first bar once)
play riff II 24 times
riff I (this time, only play first bar. play it twice)

                                       x2
F||-----------|---------------------------||
C||*----------|--------------------------*||
G||*----------|--------------------------*||
C||--1-1-1-0--|--0--0-0--0--0--0--0-0--0--||
                                      x2


F||-----------|---------------------------||
C||*----------|--------------------------*||
G||*----------|--------------------------*||
C||--1-1-1-0--|--0--0-0--0--0--0--0-0--0--||

thats all the tabMxtabs [http://www.mxtabs.net]
F|----------------|
C|----------------|
G|--5--55--5--55--|
C|----------------|

riff I
                                    x2                    end riff I
F|----------------------------------------|---------------------------------------|
C|----------------------------------------|---------------------------------------|
G|------------/8-8-8-8--------------5h6-6-|------------/8-8-8-8-------------6-6-6-|
C|-0--0--0-0-0---------0-0-0--0-0-0-------|-0--0--0-0-0---------0-0-0--0-0-0------|

riff II
            x16
F|-----------|
C|-----------|
G|--3-5-6-5--|
C|-----------|

riff I (play first bar once)
play riff II 24 times
riff I (this time, only play first bar. play it twice)

                                       x2
F||-----------|---------------------------||
C||*----------|--------------------------*||
G||*----------|--------------------------*||
C||--1-1-1-0--|--0--0-0--0--0--0--0-0--0--||

6.CHOP SUEY!

Wait for Guitar, listen to song for timing
Intro
F ----------|
C ----------|
G ----------|
C 7*--------|
(Let ring for 2 whole measures)

F ----------------|
C ----------------|
G ----8*--3*------| x2
C 7*----------3*--|


Verse:
F -----------------------------------|
C -----------------------------------|
G -----------------------------------| x4
C 777777666666/99999999/121212121212-

Wake up...
F -------------------------------------|
C -------------------------------------|
G -------------------------------------| x2
C 77-77777766-66666677-77777766-666677-|

Chours:
Why I don't think You trust...
F --------------------|
C --------------------|
G ----8*--3*----------| x2
C 7*----------3*--3/5-|

Verse 2:
Dieeeeeeeee!!!!!
F ---------------------------------|
C ---------------------------------|
G ---------------------------------| x2
C 777777666666/999999/121212121212-

F ---------|
C ---------|
G ---------|
C 77777777-

Wake up...
F -------------------------------------|
C -------------------------------------|
G -------------------------------------| x2
C 77-77777766-66666677-77777766-666677-|

Chours:
Why I don't think You trust...
F -------------------|
C -------------------|
G ----8*--3*---------| x4
C 7*----------3*-3/5-|

Verse 3:
Father, Father...
F ---------------------------------|
C ---------------------------------|
G ---------------------------------| x6
C 777777666666/999999/121212121212-

Ending Chours:
Why have You...
F -------------------|
C--------------------|
G ----8*--3*---------| x4
C 7*----------3*-3/5-|

F -------------------------|
C -------------------------|
G ----8*--3*--33-33-3------|
C 7*-------------------3*--|

7.BOUNCE

riff I
                          x8
F|-------------------------|
C|-------------------------|
G|-------------------------|
C|--8--77-88-77-88-77-878--|

riff II

F||------------------------------------------------------------||
C||*----------------------------------------------------------*||
G||*------------------------------0-0-4--0-0-4--0-0-4--0-0-4--*||
C||---8-8-7--8-8-7--8-8-7--8-8-7-------------------------------||


riff I x4
riff II
riff I x4

                                              x4             x4
F|-----|--------|------------------------------|--------------|
C|-----|--------|------------------------------|--------------|
G|-----|--REST--|------------------------------|--------------|
C|--0--|--------|--\\--88-0--88-0--88-0--88-0--|--8--8--8--8--|

                               x3
F|------------------------------|------------------------------|
C|------------------------------|------------------------------|
G|------------------------------|--0-0-4--0-0-4--0-0-4--0-0-4--|
C|--8-8-7--8-8-7--8-8-7--8-8-7--|------------------------------|

riff I x4

8.FOREST

Tune to CGCF

Riff 1
F ---------------------------------|
C ---------------------------------|
G 55556666777788885555666677778888-
C ---------------------------------
Riff 2
F -----------------------------------------------------|
C -----------------------------------------------------|
G -----------------------------------------------------|
C 0-065-0-065-0-065-0-065-0-056-0-056-0-056-0-056------|

Riff 3
F ---------|
C ---------|
G 55556666
C ---------

Riff 4
F --------------------------|
C --------------------------|
G --------------------------|
C 0-065-0-065-0-065-0-065---|

Riff 5
F ---------|
C ---------|
G 66667777
C ---------

Riff 6
F --------------------------|
C --------------------------|
G --------------------------|
C 0-056-0-056-0-056-0-056---|

Riff 7
F ---------------------------|
C ---------------------------|
G 9109876--------------------|
C --------00-0-011-1-155-5---|

Riff 8
F --------|
C --------|
G 9109876
C --------

Riff 9
F -------|
C -------|
G 999987
C -------

Riff 10
F -------------------|
C -------------------|
G 999987-1010101098
C -------------------

Riff 11
F --------------------------------|
C --------------------------------|
G 999987-1010101098-1111111109
C --------------------------------

Riff 12
F ----------------------------------------------------------|
C ----------------------------------------------------------|
G 11111111109-121212121110-131313131211-141414141312--------|
C ----------------------------------------------------------|

Riff 13
F --------------|
C --------------|
G --------------|
C 00-00-0-0-00--|

Riff 14
F --
C --
G --
C 67

9.ATWA

No bass during the first verse.

"You Don't Care..."
F|---------------|
C|---------------|
G|---------------|
C|-5-5-5-5-5-5-5-|


Verse
F|---|-------------------------------------|
C|---|-------------------------------------|
G|---|-------------------------------------|
C|-5-|-5-3--3-7--7-8--8-10--10-8--8-7--7-5-|


"I Don't Sleep..."
F|------------|
C|------------|
G|------------|
C|-5-5-5-6666-|

10.SCIENCE

wait for guitar to finish
intro/chorus x2

F------------------------------------0-----------|
C--------------------------------2-3---3-2-------|
G----------------------------1-3-----------------|
C-00-00000-00-00000-00-00000---------------------|

verse x2

F--------------------------------------------|
C--------------------------------------------|
G--------------------------------------------|
C-1-0000000000000--1-0000000000000-----------|

F-------------------------------------------|
C-------------------------------------------|
G-------------------------------------------|
C-1-00000--1-00000--1-00--1-00--1-00-1-00---|

intro/chorus x2

verse x1

chorus x2

riff x2
damage moves through all things bit after 2nd chorus

F-------------------------------------0----------|
C---------------------------------2-3---3-2------|
G-----------------------------1-3----------------|
C-00-00000-33-33333-44-44444---------------------|

interlude

F---------------------------------------------|
C---------------------------------------------|
G---------------------------------------------|
C--0-0-0--0-0-0--0-0-0--0~--------------------|

i dont know what is played in the interlude so i play this

F---------------------------------------------|
C---------------------------------------------|
G---------------------------------------------|
C---0000-000-0000-000-00-00000-0-000-000-0000-|


F---------------------------------------------|
C---------------------------------------------|
G---------------------------------------------|
C--4444-4-444-4444-444-4----------------------|


just keep playing until he says "fate fate fate fate"

play the verse but dont play the first two bars of
1 0000000000000

chorus x2

riff x4

11.SHIMMY

F||------------------||--------------------------||
C||*----------------*||*------------------------*||
G||*----------------*||*------------------------*||
C||---2--x2--2--x2---||---3p2-22-22--7p6-66-66---||

F|------------------------|-------------------|
C|------------------------|-------------------|
G|------------------------|-------------------|
C|--3p2-22-22--7p6-66-66--|--3p2-22-22--6666--|


riff I

F|-------------------------|-------------------|
C|-------------------------|-------------------|
G|-------------------------|--7-8-7-5-3-2------|
C|--3202--3202--3202--3-2--|--------------7-6--|

F|-------------------------|---------------------|
C|-------------------------|------6-7-6h7p6------|
G|-------------------------|--7-8-----------7-5--|
C|--3202--3202--3202--3-2--|---------------------|

                                                        end riff I
F|-------------------------|--------------------------------------|
C|-------------------------|------6-7-6h7p6-----------------------|
G|-------------------------|--7-8-----------7-8-7-5-3-2-3-2-------|
C|--3202--3202--3202--3-2--| -------------------------------7-6\--|

F|--------------------------------------------|
C|--------------------------------------------|
G|--------------------------------------------|
C|--2-2-/6-6--2-2-/6-6--2-2-/6-6--2-2-/66666--|

riff I

F||-------------------------------------------||
C||*-----------------------------------------*||
G||*-----------------------------------------*||
C||--2-2-/6-6--2-2-/6-6--2-2-/6-6--2-2-/66-6--||

F|--------------|-----------|--------------|
C|--------------|-----------|--------------|
G|--------------|-----------|--------------|
C|--2--2--2--2--|--2-2-2-2--|--2-2--22222--|

                        x2
F||---------------------||
C||*-------------------*||
G||*--7-8-7-5-3-2------*||
C||---------------7-6---||

                           x2
F||-------------------------||
C||*-----------------------*||
G||*-----------------------*||
C||--3202--3202--3202--3-2--||

12.TOXICITY

INTRO 1: Guitar

INTRO 2:
F|---------------------------------------------------------------|
C|---------------------------------------------------------------|
G|---------------------------------------------------------------|
C|-0------3-2-0-2-0-----8-88---7-77------------------------------|
THEN
F|---------------------------------------------------------------|
C|---------------------------------------------------------------|
G|---------------------------------------------------------------|
C|-3-2-0-2-00--3-2-0-2-00--------8-88---7-77---------------------|
THEN PLAY THE INTRO 2 ONCE MORE

VERSES:(listen to the song for CORRECT timing)
F|---------------|--------------|-----------------|------------------|
C|---7-----7---7-|---7----7-----|---10----10---10-|---10-----10------|
G|-5---5-----5---|-5---5----5-5-|-8---8------8----|-8----8-------8-8-|
C|---------------|--------------|-----------------|------------------|

F|----------7------|----------------|------------------|----------------|
C|---7-----------7-|---7------7-----|---10-----10---10-|---10----10-----|
G|-5---5-------5---|-5---5------5-5-|-8----8------8----|-8----8-----8-8-|
C|-----------------|----------------|------------------|----------------|

PART AFTER GUITAR SOLO (Bridge)
F|----------------------------|-----------------------------------------|
C|----------------------------|-----------------------------------------|
G|----------------------------|-----------------------------------------|
C|-3-2-0--0-0-0--3-2-0--0-0-0-|-0-0--0-0-0--3-2-0-2---------------------|
 part A                           part B
Then repeat part A

OUTRO (When i became the sun........)
F|----------------------------|
C|----------------------------|
G|----------------------------| repeat 4 times
C|-0--0-0--3-2-0-2------------|

13.PSYCHO

Intro

F||----------------|---------------|---------------|---------------||
C||*---------------|---------------|---------------|--------------*||
G||*---------------|---------------|---------------|--------------*||
C||--2-22-222-2222-|-2-22-222-2222-|-0-00-000-0000-|-0-00-000-0000-||

                         x2
F|----||------------------||
C|----||*----------------*||
G|----||*----------------*||
C|--/-||--33--33--33--33--||


riff I
                 end riff I x2
F|--------------------------||
C|--------------------------||
G|--------------------------||
C|--33-2--33-2--33-2--33-2--||


riff II
                    x3                        end riff II       x4
F|-------------------|----------------------|-------------------|
C|-------------------|----------------------|-------------------|
G|-------------------|----------------------|-------------------|
C|--332-332-332-332--|--332-332-332-332--3--|--332-332-332-332--|

F|---------------------|------------------|
C|---------------------|------------------|
G|---------------------|------------------|
C|--0--0--0-00--0-0-0--|-/3--3--3--3--32--|

riff I  x2
riff II

F|---------------------|--------------|-------------|
C|---------------------|--------------|-------------|
G|---------------------|--------------|-------------|
C|--0--0--0-00--0-0-0--|-/3--3--3--3--|--2~----0-2--|

F|--------------------|----------|----------------------|
C|--------------------|----------|----------------------|
G|--------------------|--riff-I--|----------------------|
C|--0-2~---2-0~--/3~--|----------|--2~--0~--0-2-3--(3)--|

riff I
riff II

F|---------------------|---------------|-------------|
C|---------------------|---------------|-------------|
G|---------------------|---------------|-------------|
C|--0--0--0-00--0-0-0--|--/3--3--3--3--|--2~---0-2~--|

F|-----------------------------|----------|-------------------------|
C|-----------------------------|----------|-------------------------|
G|-----------------------------|--riff-I--|-------------------------|
C|--0-2~--0~--0-2-3--(3)--(3)--|----------|--2~--0~--0-2-3--(3)-(3)-|

riff I

F|-------------------------|----------------------------------|
C|-------------------------|----------------------------------|
G|-------------------------|----------------------------------|
C|--2~--0~--/3-3/5-5\3-\2~-|-0-2~--2-0~--0-2-3--3-3/5-5\3-\2--|

F|---------------------||---------------||---------------||
C|---------------------||*-------------*||*-------------*||
G|---------------------||*-------------*||*-------------*||
C|--2--2--2-22--2-2-2--||--22-22-22-22--||--00-00-00-00--||

F|------------------------------|----------------------------|
C|------------------------------|----------------------------|
G|------------------------------|----------------------------|
C|--/33-33-33-33-/55-55-\33-33--|--22-22-22-22-22-22-22-2-0--|

F||---------------||---------------||---------------------------|
C||*-------------*||*-------------*||---------------------------|
G||*-------------*||*-------------*||---------------------------|
C||--22-22-22-22--||--00-00-00-00--||--/3---3---3/5--5\3--\2~~--|

14.AERIALS

Intro
F|--------------------------------------------|
C|-3-2-0-000-5-3-2-222-2-3-5-7-8-5-3-2-0-000--|
G|--------------------------------------------|
C|--------------------------------------------|

F|------------------------------------------------------|
C|-12-10-7-777-14-12-7-777-12-14-15-17-15-14-12-10-12---|
G|------------------------------------------------------|
C|------------------------------------------------------|

Verse 1
F|--------------------------------------|
C|--------------------------------------|
G|--------------------------------------|
C|-8-8-8-8-8-8-8-8-8-8-8-8-8-8-8-8-8-8--|

F|-----------------------------------------------|
C|-----------------------------------------------|
G|---------10b---------8b---------7b---------5b--|
C|-0-0-0-0-----0-0-0-0----0-0-0-0----0-0-0-0-----|

Chorus 1
F|--------------------------------------------|
C|-3-2-0-000-5-3-2-222-2-3-5-7-8-5-3-2-0-000--|
G|--------------------------------------------|
C|--------------------------------------------|

Verse 2
F|--------------------------------------|
C|--------------------------------------|
G|--------------------------------------|
C|-8-8-8-8-8-8-8-8-8-8-8-8-8-8-8-8-8-8--|

F|-----------------------------------------------|
C|-----------------------------------------------|
G|---------10b---------8b---------7b---------5b--|
C|-0-0-0-0-----0-0-0-0----0-0-0-0----0-0-0-0-----|

Verse 2 Fill:
F|------------------------------------------------------------------------|
C|------------------------------------------------------------------------|
G|------------------------------------------------------------------------|
C|-8-8-8-8-8-8-8-8-8-8-8-8-8-8-8-8-8-8---7-7-7-7-7-7-7-7-7-7-7-7-7-7-7-7--|

Breakdown
F|---------------------------------------------|
C|---------------------------------------------|
G|---------------------------------------------|
C|-3-2-0-000-5-3-2-222-2-3-5-7-8-5-3-2-0--8\---|

Outro
F|--------------------------------------------|
C|-3-2-0-000-5-3-2-222-2-3-5-7-8-5-3-2-0-000--|
G|--------------------------------------------|
C|--------------------------------------------|

GREAT ALBUM!!
Suggest correction
comments
print report bad tab
7 comments total. Showing first comments.
-2 reply
Phildo64 10 May 12, 2005 12:00 AM

WtF? You always leave a bass standard!

0 reply
XbassismylifeX 10 Mar 23, 2006 10:25 AM

aight bro i love the album and all but you got aerials all wrong...bass is not in the intro....thats another guitar i saw it live ...and you should be play'n the chorus and the outro on the low c not the high one....(same as the breakdown).....if you want to get in touch with me email me at Zerosk8er926@aol.com...Peace

0 reply
pkr1991 10 May 18, 2006 04:14 PM

VERY bad

guest
You may want to rate the tab now too:
select rating
Wanna post a correction for this tab? Suggest correction