Oops, an error
Loading. Please wait.
256,677 views 42 this week
59 commentsread comments
1 2 3 4 5
x 73
add to favorites
launch autoscroll
font size
0
reset
how to read this tab
guitar tuner
Autoscroll
slow
fast
+/-
esc
set tempo
stop
Help us to improve Ultimate-Guitar.com Take our survey!
×
Author
Tuning
C G C F A D
WELL HERE WE GO THE WHOLE SYSTEM OF A DOWN ALBUM!! i DIDNT
ADD CHOP SUEY CAUSE WELL I THINK EVERYONE KNOWS IT BY KNOW
SO HERE IS ALL THE OTHER SONGS! ENJOY!

Song: "Prison Song"
Artist: System of A Down
Album: Toxicity
Transcribed By: Josh Minnish

Tuning: Drop C, Down 1 Step (C,G,C,F,A,D)

<> - harmonic


[Intro]

D|--------------------------------------------|
A|--------------------------------------------|
F|--------------------------------------------|
C|-0------0-1-3-1-0-1-3-1-0-1-3-1-0-1-8-8-8-8-|
G|-0------0-1-3-1-0-1-3-1-0-1-3-1-0-1-8-8-8-8-|
C|-0------0-1-3-1-0-1-3-1-0-1-3-1-0-1-8-8-8-8-|

D|----------------------------------------------------------------------------|
A|----------------------------------------------------------------------------|
F|----------------------------------------------------------------------------|
C|-0-1-3-1-0-1-3-1-0-1-3-1-0-1-8-8-8-8-----0-1-3-1-0-1-3-1-0-1-3-1-----8-8-8-8|
G|-0-1-3-1-0-1-3-1-0-1-3-1-0-1-8-8-8-8-----0-1-3-1-0-1-3-1-0-1-3-1-----8-8-8-8|
C|-0-1-3-1-0-1-3-1-0-1-3-1-0-1-8-8-8-8-----0-1-3-1-0-1-3-1-0-1-3-1-----8-8-8-8|


[Chorus]

D|------------------------------------------------------------|
A|------------------------------------------------------------|
F|------------------------------------------------------------|
C|-0-1-0-1-0-1-0--0-1-0-1-0-1-0--0-1-0-1-0-1-0--0-1-0-8-8-8-8-|
G|-0-1-0-1-0-1-0--0-1-0-1-0-1-0--0-1-0-1-0-1-0--0-1-0-8-8-8-8-|
C|-0-1-0-1-0-1-0--0-1-0-1-0-1-0--0-1-0-1-0-1-0--0-1-0-8-8-8-8-|


[Bridge]

D|-------------------------------------|
A|-------------------------------------|
F|-------------------------------------|
C|-0-1-3-1-0-1-3-1-0-1-3-1-0-1-8-8-8-8-|
G|-0-1-3-1-0-1-3-1-0-1-3-1-0-1-8-8-8-8-|
C|-0-1-3-1-0-1-3-1-0-1-3-1-0-1-8-8-8-8-|


[Verse]

D|----------|
A|----------|
F|---<4>----|
C|----------|
G|-5----<6>-|
C|----------|


[Fill 1]

 (palm mute)
D|----------------|
A|----------------|
F|----------------|
C|----------------|
G|-0-8-0-8-0--8-8-|
C|-0-8-0-8-0--8-8-|


[Fill 2]

D|---------|
A|---------|
F|---------|
C|-0-1-0-8-|
G|-0-1-0-8-|
C|-0-1-0-8-|


[Interlude]

D|-----------------|
A|-----------------|
F|-7---------6-----|
C|---8---8-7---7---|
G|-----8---------7-|
C|-----------------|


[Interlude 2]

D|--------------------------------------|
A|--------------------------------------|
F|--------------------------------------|
C|-0-0-0-0-0-0-0-0-0-0-0-0-0-0--8-8-8-8-|
G|-0-0-0-0-0-0-0-0-0-0-0-0-0-0--8-8-8-8-|
C|-0-0-0-0-0-0-0-0-0-0-0-0-0-0--8-8-8-8-|


[Interlude 3]

D|--------------------------------------|
A|--------------------------------------|
F|--------------------------------------|
C|-0-0--0-0--0--0-0--0--0-0--0--8-8-8-8-|
G|-0-0--0-0--0--0-0--0--0-0--0--8-8-8-8-|
C|-0-0--0-0--0--0-0--0--0-0--0--8-8-8-8-|
PM. .  .. .  .. .  .. .  ....


[Outro]

D|---------------1-|
A|---------------3-|
F|---7------6----2-|
C|-----8------7--0-|
G|-8------7------0-|
C|---------------0-|


Song: "Needle"
Artist: System of A Down
Album: Toxicity
Transcribed By: Josh Minnish

Tuning:  Drop D, Down 1 Step (C,G,C,F,A,D)


[Intro]

(not positive on this)

D|-6p5p0-6p5p0-6p5p0-6p5p0-6-0-6-0-6-5/6-6-0-6-0-6p5p0-6p5p0-6p0-6p0-6p0|
A|----------------------------------------------------------------------|
F|----------------------------------------------------------------------|
C|----------------------------------------------------------------------|
G|----------------------------------------------------------------------|
C|----------------------------------------------------------------------|


[Bridge]

 (slight variations on this throughout song)
D|-------------------------------------------------------------------------------------------|
A|-------------------------------------------------------------------------------------------|
F|-------------------------------------------------------------------------------------------|
C|-0-6-6-6-6-6-6-6-6-6-6-6-6-6-6-6-6---------------------------------------------------------|
G|-0-6-6-6-6-6-6-6-6-6-6-6-6-6-6-6-6--6-6-0--6-6-0--6-6-0--6-6-0--6-6-0--6-6-0--6-6-0--6-6-0-|
C|-0-6-6-6-6-6-6-6-6-6-6-6-6-6-6-6-6--6-6-0--6-6-0--6-6-0--6-6-0--6-6-0--6-6-0--6-6-0--6-6-0-|
 PM                                  . . .  . . .  . . .  . . .  . . .  . . .  . . .  . . .

D|--------------------------------------------------------|
A|--------------------------------------------------------|
F|--------------------------------------------------------|
C|--------------------------------------------------------|
G|-6-6-0--6-6-0--6-6-0--6-6-0--6-6-0--6-6-0--6-6-0--6-6-0-|
C|-6-6-0--6-6-0--6-6-0--6-6-0--6-6-0--6-6-0--6-6-0--6-6-0-|
PM. . .  . . .  . . .  . . .  . . .  . . .  . . .  . . .


[Verse]

D|----------------------------------------|
A|----------------------------------------|
F|----------------------------------------|
C|----------------------------------------|
G|-5-6--5-6--5-6--5-6--5-6--5-6--5-6--5-6-|
C|-5-6--5-6--5-6--5-6--5-6--5-6--5-6--5-6-|


[Pre-Chorus]

D|-----------------------------------------------------|
A|-----------------------------------------------------|
F|-----------------------------------------------------|
C|-5-13\8-13\8-1-13\8-13\8-6-13\8-6-13\8-6-13\8-6-13\8-|
G|-5-13\8-13\8-1-13\8-13\8-6-13\8-6-13\8-6-13\8-6-13\8-|
C|-5-13\8-13\8-1-13\8-13\8-6-13\8-6-13\8-6-13\8-6-13\8-|


[Chorus]

D|---------------------------------|
A|---------------------------------|
F|---------------------------------|
C|-5-5-5-5-3-3-3-3-6-6-6-6-5-5-5-5-|
G|-5-5-5-5-3-3-3-3-6-6-6-6-5-5-5-5-|
C|-5-5-5-5-3-3-3-3-6-6-6-6-5-5-5-5-|


 [Chorus Fill]
D|---------------------------|
A|---------------------------|
F|---------------------------|
C|-5-5-5-5-3-3-3-3-6-6-6-6-5-|
G|-5-5-5-5-3-3-3-3-6-6-6-6-5-|
C|-5-5-5-5-3-3-3-3-6-6-6-6-5-|


[Interlude]

D|-------------------------------------------------|
A|---4p3---4p3---------------3p2---3p2-------------|
F|-------------------------------------------------|
C|-5-----5-------5-4---5-4-4-----4-------5-4---5-4-|
G|-------------6-----6-----------------5-----5-----|
C|-------------------------------------------------|
PM.     .       . . . . . .     .       . . . . .


[Outro]

 (palm mute)
D|---------------------------------|
A|---------------------------------|
F|---------------------------------|
C|---------------------------------|
G|-5-5-6-6-8-8-6-6-5-5-3-3-6-6-5-5-|
C|-5-5-6-6-8-8-6-6-5-5-3-3-6-6-5-5-|





Song: "Deer Dance"
Artist: System of A Down
Album: Toxicity
Transcribed By: Josh Minnish

Tuning: Drop D, 1 Step Down (C,G,C,F,A,D)

<> - harmonics


[Intro]

(palm mute)

D|------------------------------------------------|
A|------------------------------------------------|
F|------------------------------------------------|
C|------------------------------------------------|
G|-1-1-0--1-1-0--1-1-0--1--1-1-0--1-1-0--1--1-0-1-|
C|-1-1-0--1-1-0--1-1-0--1--1-1-0--1-1-0--1--1-0-1-|
PM. . .  . . .  . . .     . . .  . . .     . . .

MAIN RIFF:

D|--------------------------------------------------------------|
A|--------------------------------------------------------------|
F|--------------------------------------------------------------|
C|-1-0-1-0-1-0-1-0-1-0-1-0-1-0-1-0-1-0-1-0-1-0-1--1-0-1-0-1-0-1-|
G|-1-0-1-0-1-0-1-0-1-0-1-0-1-0-1-0-1-0-1-0-1-0-1--1-0-1-0-1-0-1-|
C|-1-0-1-0-1-0-1-0-1-0-1-0-1-0-1-0-1-0-1-0-1-0-1--1-0-1-0-1-0-1-|
PM. . . . . . . . . . . . . . . . . . . . . .    . . . . . .


[Verse]

D|-------------------------|
A|-------------------------|
F|-------------------------|
C|---------------------<5>-|
G|-------------------------|
C|-5-5/8--3-3/7--1-1/5-----|


[Verse]

(slide between palm muted notes)

D|----------------------------------------------------------------|
A|----------------------------------------------------------------|
F|----------------------------------------------------------------|
C|----------------------------------------------------------------|
G|----------------------------------------------------------------|
C|-5-5-5-5-8-8-8-8-3-3-3-3-7-7-7-7-1-1-1-1-5-5-5-5-0-0-0-0-0-0-0-0|
PM. . . . . . . . . . . . . . . . . . . . . . . . . . . . . . . .|

D|----------------------------------------------------|
A|----------------------------------------------------|
F|----------------------------------------------------|
C|------------------------------------------------<5>-|
G|----------------------------------------------------|
C|-5-5-5-5-8-8-8-8-3-3-3-3-7-7-7-7-1-1-1-1-5-5-5-5----|
   . . . . . . . . . . . . . . . . . . . . . . . .


[Interlude A]

D|----------------------|
A|-10-9------13-10-9----|
F|------9------------9--|
C|--------12------------|
G|----------------------|
C|----------------------|


[Interlude B]

D|---------------------------------------------------------------------|
A|-----------10-9------13-10-9-/11-11-11-11-11/13-13-13-13-13/15-15-15-|
F|-15-14-12-------9----------------------------------------------------|
C|------------------12-------------------------------------------------|
G|---------------------------------------------------------------------|
C|---------------------------------------------------------------------|

D|-------------------|
A|-16-15-13----------|
F|----------14-15-14-|
C|-------------------|
G|-------------------|
C|-------------------|


[Interlude Fill]

D|-------------|
A|-------------|
F|-15-14-15-14-|
C|-------------|
G|-------------|
C|-------------|


[Interlude C]

D|-------------------------|
A|-------------------------|
F|-15-15-15-14-14-14-14-14-|
C|-------------------------|
G|-------------------------|
C|-------------------------|


[Outro]

D|-------------------------------|
A|-------------------------------|
F|-------------------------------|
C|-1-0-1-0-1-0-1-0-1-0-1-0-1-0-1-|
G|-1-0-1-0-1-0-1-0-1-0-1-0-1-0-1-|
C|-1-0-1-0-1-0-1-0-1-0-1-0-1-0-1-|
 PM. . . . . . . . . . . . . .




Song: Jet Pilot 
Artist: System Of A Down
Album: Toxicity
Transcribed By: Josh Minnish


Tuning:  Drop D, Down 1 Step (C,G,C,F,A,D)


[Intro/Chorus] 

(first play this)

D|-----------|------------------|
A|-----------|------------------|
F|-----------|------------------|
C|-0-0-0--8\-|-0-0--6\--0-0--8\-|
G|-0-0-0--8\-|-0-0--6\--0-0--8\-|
C|-0-0-0--8\-|-0-0--6\--0-0--8\-|
 ( only once )(play this a bunch of times)


[Bridge]

play after chorus

D|-----------|---------|
A|-----------|---------|
F|-----------|---------|
C|-0-0-0--8\-|-0-0--8\-|
G|-0-0-0--8\-|-0-0--8\-|
C|-0-0-0--8\-|-0-0--8\-|
 ( play once )( play a bunch of times)


Fill in: play after bridge

D|---------------------|
A|---------------------|
F|---------------------|
C|---------------------|
G|---8-7\5-7-5h7p5-3-1-|
C|-7-------------------|


[Verse]

(play this after the fill in)

D|--------------||------------------|
A|--------------||------------------|
F|--------------||------------------|
C|--------------||-7-8-7-8-7-7--5-5-|
G|--------------||-7-8-7-8-7-7--5-5-|
C|-7-8-7-8-7--5-||-7-8-7-8-7-7--5-5-|
Pm. . . . .  .   . . . . . .  . .


[Chorus]

(now play this)

D|-----------|------------------|
A|-----------|------------------|
F|-----------|------------------|
C|-0-0-0--8\-|-0-0--6\--0-0--8\-|
G|-0-0-0--8\-|-0-0--6\--0-0--8\-|
C|-0-0-0--8\-|-0-0--6\--0-0--8\-|
 ( only once )(play this a bunch of times)


 Fill in: play after bridge
D|---------------------|
A|---------------------|
F|---------------------|
C|---------------------|
G|---8-7\5-7-5h7p5-3-1-|
C|-7-------------------|


[Verse]

(play this after the fill in)

D|--------------||------------------|
A|--------------||------------------|
F|--------------||------------------|
C|--------------||-7-8-7-8-7-7--5-5-|
G|--------------||-7-8-7-8-7-7--5-5-|
C|-7-8-7-8-7--5-||-7-8-7-8-7-7--5-5-|
Pm. . . . .  .   . . . . . .  . .


[Chorus]

(now play this)

D|-----------|------------------|
A|-----------|------------------|
F|-----------|------------------|
C|-0-0-0--8\-|-0-0--6\--0-0--8\-|
G|-0-0-0--8\-|-0-0--6\--0-0--8\-|
C|-0-0-0--8\-|-0-0--6\--0-0--8\-|
( only once )(play this a bunch of times)


[Fill In] 

(now play this a bunch of times)

D|---------------------|
A|---------------------|
F|---------------------|
C|---------------------|
G|---8-7\5-7-5h7p5-3-1-|
C|-7-------------------|


[Fill in] 

(after a bunch of times play this)

D|---------------------------------------------------------------|
A|---------------------------------------------------------------|
F|---------------------------------------------------------------|
C|---------------------------------------------------------------|
G|---12-10-12-13-12-15-13--17-15-19-17--20-19-17-15--19-17-15-14-|
C|-7-------------------------------------------------------------|
pm                                     .. .. .. ..  .. .. .. ..


[Chorus]

(now play this)

D|-----------|------------------|
A|-----------|------------------|
F|-----------|------------------|
C|-0-0-0--8\-|-0-0--6\--0-0--8\-|
G|-0-0-0--8\-|-0-0--6\--0-0--8\-|
C|-0-0-0--8\-|-0-0--6\--0-0--8\-|
( only once )(play this a bunch of times)




Song: X 
Artist: System Of A Down
Album: Toxicity
Transcribed By: Josh Minnish

Tuning:  Drop D, Down 1 Step (C,G,C,F,A,D)


[Intro]

(Guitar only couple times, Open String, then harmanic)

D|------------|------------|------------|
A|------------|------------|------------|
F|------------|------------|------------|
C|-0-12-13-12-|-0-12-13-12-|-0-12-13-12-|
G|------------|------------|------------|
C|------------|------------|------------|
Pm.  .  .  .              Ha.  .  .  .


[Verse]

(Start playing this after intro)

D|-----------------------||-----------------------|
A|-----------------------||-----------------------|
F|--------------14/15-15-||-----------------------|
C|-0--0--0-0-0-----------||-0--0--0-0-0--12h13-13-|
G|-0--0--0-0-0--12/13-13-||-0--0--0-0-0--12h13-13-|
C|-0--0--0-0-0-----------||-0--0--0-0-0--12h13-13-|


[Chorus]

(Play many times)

D|------------|
A|------------|
F|------------|
C|-0-12-13-12-|
G|-0-12-13-12-|
C|-0-12-13-12-|


[Verse]

(Play Verse again)

D|-----------------------||-----------------------|
A|-----------------------||-----------------------|
F|--------------14/15-15-||-----------------------|
C|-0--0--0-0-0-----------||-0--0--0-0-0--12h13-13-|
G|-0--0--0-0-0--12/13-13-||-0--0--0-0-0--12h13-13-|
C|-0--0--0-0-0-----------||-0--0--0-0-0--12h13-13-|


[Chorus]

(Play chorus again)

D|------------|
A|------------|
F|------------|
C|-0-12-13-12-|
G|-0-12-13-12-|
C|-0-12-13-12-|


[Verse]

(Play Verse again)

D|-----------------------||-----------------------|
A|-----------------------||-----------------------|
F|--------------14/15-15-||-----------------------|
C|-0--0--0-0-0-----------||-0--0--0-0-0--12h13-13-|
G|-0--0--0-0-0--12/13-13-||-0--0--0-0-0--12h13-13-|
C|-0--0--0-0-0-----------||-0--0--0-0-0--12h13-13-|


[Outro]

(Play this right after the verse)

D|--------------------------------------|---------|
A|--------------15^-----15^---------15^-|---------|
F|--------------------------------------|---------|
C|-0--0--0-0-0-------0-------0-0-0------|-0-0-0-0-|
G|-0--0--0-0-0-------0-------0-0-0------|-0-0-0-0-|
C|-0--0--0-0-0-------0-------0-0-0------|-0-0-0-0-|


[Outro]

(play after first time you play outro)

D|-----------------------------------------------|
A|-----------------------15^-----15^---------15^-|
F|-----------------------------------------------|
C|-0-0-0-0--0--0--0-0-0-------0-------0-0-0------|
G|-0-0-0-0--0--0--0-0-0-------0-------0-0-0------|
C|-0-0-0-0--0--0--0-0-0-------0-------0-0-0------|


[Chorus]

(And finish off with the chorus)

D|------------|
A|------------|
F|------------|
C|-0-12-13-12-|
G|-0-12-13-12-|
C|-0-12-13-12-|


Chop Suey! You Should Know it BY Know



Artist: System Of A Down
Song: Bounce
Album: Toxicity
Transcribed By: Josh Minnish

C G C F A D


[Intro/Chorus] 

D|-----------------------------------------------------------------|
A|-----------------------------------------------------------------|
F|-----------------------------------------------------------------|
C|-----------------------------------------------------------------|
G|-8--7-7-8-8-7-7-8-8-7-7-8-8--0--8--7-7-8-8-7-7-8-8-7-7-8-8--0----|
C|-8--7-7-8-8-7-7-8-8-7-7-8-8--0--8--7-7-8-8-7-7-8-8-7-7-8-8--0----|


[Verse 1]

D|-----------------------------------------------------------------|
A|-----------------------------------------------------------------|
F|-----------------------------------------------------------------|
C|---7--8----7--8----7--8----7--8----6--7----6--7----6--7----6--7--|
G|-5-------5-------5-------5-------4-------4-------4-------4-------|
C|-----------------------------------------------------------------|


[Verse Riff]

D|-----------------------------------------------------------------|
A|-----------------------------------------------------------------|
F|-----------------------------------------------------------------|
C|---9-10----9-10----9-10----9-10----9--8----9--8----9--8----9--8--|
G|-7------7-------7-------7--------6-------6-------6-------6-------|
C|-----------------------------------------------------------------|


[Bridge]

D|-----------------------------------------------------------|
A|-----------------------------------------------------------|
F|-----10-----10-----10-----10-----9-----9-----9-----9-------|
C|-8-------8------8------8------8-----8-----8-----8----------|
G|-----------------------------------------------------------|
C|-----------------------------------------------------------|


D|-----------------------------------------------------------------|
A|-----------------------------------------------------------------|
F|-----------------------------------------------------------------|
C|-----------------------------------------------------------------|
G|-8-8--0--8-8--0--8-8--0--8-8--0--8-8--0--8-8--0--8-8--0--8-8--0--|
C|-8-8--0--8-8--0--8-8--0--8-8--0--8-8--0--8-8--0--8-8--0--8-8--0--|



D|-----------------------------------------------------|
A|-x-x-----------------------x-x-----------------------|
F|-x-x--10---10---10---10----x-x---9----9----9----9----|
C|-x-x---8----8----8----8----x-x---8----8----8----8----|
G|-----------------------------------------------------|
C|-----------------------------------------------------|


Song: "Forest"
Artist: System of A Down
Album: Toxicity
Transcribed By: Josh Minnish

Tuning: Drop D, 1 Step Down (C,G,C,F,A,D)


[Intro]

D|---------------------------------------------------------------|
A|---------------------------------------------------------------|
F|---------------------------------------------------------------|
C|-0--0-0-0-0-0-0-0-0-0-0-0-0-0-0--1--1-1-1--1-1-1--1-1-1--1-1-2-|
G|---------------------------------------------------------------|
C|---------------------------------------------------------------|
PM.  . . . . . . . . . . . . . .  .  . . .  . . .  . . .  . . .  |

D|---------------------------------------------------------|
A|---------------------------------------------------------|
F|---------------------------------------------------------|
C|-2-2-2-2-2-2-2-2-2-2-2-2-2-3--3-3-3--3-3-3-3-3-3-3-3-3-3-|
G|---------------------------------------------------------|
C|---------------------------------------------------------|
   . . . . . . . . . . . . . .  . . .  . . . . . . . . . .


D|---------------------------------------------------------------------------------------------------------|
A|-----------------------------------------------------------------------------------------6-6-6-6-6-6-6-6-|
F|---------------------------------------------------------------------------------------------------------|
C|-0--0-0-0-0-0-0-0-0-0-0-0-0-0--1--1-1-1--1-1-1-1-1-1-1-1-1-1-2--2-2-2--2-2-2-2-2-2-2-2-2-3-3-3-3-3-3-3-3-|
G|---------------------------------------------------------------------------------------------------------|
C|---------------------------------------------------------------------------------------------------------|
PM.  . . . . . . . . . . . . .  .  . . .  . . . . . . . . . . .  . . .  . . . . . . . . .


[Bridge]

(play once then again w/ palm mute)

D|--------------------------------------------------------------------------------|
A|--------------------------------------------------------------------------------|
F|--------------------------------------------------------------------------------|
C|-0--0-6-4--0--0-6-4--0--0-6-4--0--0-6-4--0--0-4-6--0--0-4-6--0--0-4-6--0--0-4-6-|
G|-0--0-6-4--0--0-6-4--0--0-6-4--0--0-6-4--0--0-4-6--0--0-4-6--0--0-4-6--0--0-4-6-|
C|-0--0-6-4--0--0-6-4--0--0-6-4--0--0-6-4--0--0-4-6--0--0-4-6--0--0-4-6--0--0-4-6-|


[Verse]

(palm mute chords during verse 2)

D|---------------------------------------------------------------------------------------------------|
A|---------------------------------------------------------------------------------------------------|
F|---------------7-7-7-7-7-7-7-7--------------8-8-8-8-8-8-8-8----------------------------------------|
C|--------4-4-4-4----------------------5-5-5-5----------------0--0-6-4--0--0-6-4--0--0-6-4--0--0-6-4-|
G|-5-5-5-5----------------------6-6-6-6-----------------------0--0-6-4--0--0-6-4--0--0-6-4--0--0-6-4-|
C|------------------------------------------------------------0--0-6-4--0--0-6-4--0--0-6-4--0--0-6-4-|

D|---------------------------------------------------------------------------------------------------|
A|---------------------------------------------------------------------------------------------------|
F|---------------8-8-8-8-8-8-8-8--------------9-9-9-9-9-9-9-9----------------------------------------|
C|--------5-5-5-5----------------------6-6-6-6----------------0--0-4-6--0--0-4-6--0--0-4-6--0--0-4-6-|
G|-6-6-6-6----------------------7-7-7-7-----------------------0--0-4-6--0--0-4-6--0--0-4-6--0--0-4-6-|
C|------------------------------------------------------------0--0-4-6--0--0-4-6--0--0-4-6--0--0-4-6-|


[Verse B] 

(no ones or zeros, elevens and tens)

D|-------------------------------------------------------------------------------------------------|
A|-------------------------------------------------------------------------------------------------|
F|---------------8-8-8-8-8-8-8-8--------------9-9-9-9-9-9-9-9--------------10-10-10-10-10-10-10-10-|
C|--------5-5-5-5----------------------6-6-6-6----------------------7-7-7-7------------------------|
G|-6-6-6-6----------------------7-7-7-7----------------------8-8-8-8-------------------------------|
C|-------------------------------------------------------------------------------------------------|

D|---------------------------------------|
A|---------------------------------------|
F|---------------11-11-11-11-11-11-11-11-|
C|--------8-8-8-8------------------------|
G|-9-9-9-9-------------------------------|
C|---------------------------------------|

 VERSE C:
D|-------------------------------------------------|
A|-------------------------------------------------|
F|-----7-------7-------8-------8-------9-------9---|
C|---4---4---4---4---5---5---5---5---6---6---6---6-|
G|-5-------5-------6-------6-------7-------7-------|
C|-------------------------------------------------|


[Chorus]

D|------------------------------|
A|------------------------------|
F|------------------------------|
C|--------------0-0---1-1---5-5-|
G|-8-10-8-7-5-4-0-0---1-1---5-5-|
C|-8-10-8-7-5-4-0-0---1-1---5-5-|


[Chorus]

(END 1)

D|--------------|
A|--------------|
F|--------------|
C|--------------|
G|-8-10-8-7-5-4-|
C|-8-10-8-7-5-4-|


[Chorus]

(END 2)

D|---------------------------------------|
A|---------------------------------------|
F|---------------------------------------|
C|---------------------------------------|
G|-8-8-8-8-7-5--8-8-8-8-7-5--8-8-8-8-7-5-|
C|-8-8-8-8-7-5--8-8-8-8-7-5--8-8-8-8-7-5-|


[Interlude]

(palm mute)

D|-------------------------------------|
A|-------------------------------------|
F|-------------------------------------|
C|-------------------------------------|
G|-00-0-6-4-00-0-6-4-00-0-6-4-00-0-6-4-|
C|-00-0-6-4-00-0-6-4-00-0-6-4-00-0-6-4-|


[Interlude 2]

(palm mute)

D|-----------------------------------------|
A|-----------------------------------------|
F|-----------------------------------------|
C|-----------------------------------------|
G|-0-0-0-4-6-0-0-0-4-6-0-0-0-4-6-0-0-0-4-6-|
C|-0-0-0-4-6-0-0-0-4-6-0-0-0-4-6-0-0-0-4-6-|


[Interlude 3]

D|--------------------------|
A|--------------------------|
F|--------------------------|
C|--------------8-8-8-8-7---|
G|-8-8-8-8-7-5--6-6-6-6-5-8-|
C|-8-8-8-8-7-5------------8-|


[Interlude 4]

D|-------------------------------------------|
A|-------------------------------------------|
F|-------------------------------------------|
C|--------------8-8-8-8-7----10-10-10-10-8-7-|
G|-8-8-8-8-7-5--6-6-6-6-5-8---8--8--8--8-6-5-|
C|-8-8-8-8-7-5------------8------------------|


[Interlude 5]

D|----------------------------------------------------------------------|
A|----------------------------------------------------------------------|
F|----------------------------------------------------------------------|
C|-10-10-10-10-8-7-12-12-12-12-10-8-13-13-13-13-12-10-15-15-15-15-13-12-|
G|--8--8--8--8-6-5-10-10-10-10--8-6-11-11-11-11-10--8-13-13-13-13-11-10-|
C|----------------------------------------------------------------------|


[Interlude 6]

(palm mute)

D|-----------------------|
A|-----------------------|
F|-----------------------|
C|-0-0--0--0--0-0-0--0-0-|
G|-0-0--0--0--0-0-0--0-0-|
C|-0-0--0--0--0-0-0--0-0-|


[Verse D]

(palm mute)

D|-------------------------------------------------------------------|
A|-------------------------------------------------------------------|
F|-----7-------7-------8-------8-------9-------9-------10-------10---|
C|---4---4---4---4---5---5---5---5---6---6---6---6---7----7---7----7-|
G|-5-------5-------6-------6-------7-------7-------8--------8--------|
C|-------------------------------------------------------------------|


[Chorus 2]

D|-------------------------------------------------------------------------------------|
A|-------------------------------------------------------------------------------------|
F|-------------------------------------------------------------------------------------|
C|--------------0-0--0-0--0-0-0-0--0-0--1-1--1-1--1-1-1-1--1-1--5-5--5-5--5-5-5-5--5-5-|
G|-8-10-8-7-5-4-0-0--0-0--0-0-0-0--0-0--1-1--1-1--1-1-1-1--1-1--5-5--5-5--5-5-5-5--5-5-|
C|-8-10-8-7-5-4-0-0--0-0--0-0-0-0--0-0--1-1--1-1--1-1-1-1--1-1--5-5--5-5--5-5-5-5--5-5-|
PM             . .  . .  . . . .  . .  . .  . .  . . . .  . .  . .  . .  . . . .  . .


[Outro]

D|----------------|
A|----------------|
F|----------------|
C|--------------0-|
G|-8-10-8-7-5-4-0-|
C|-8-10-8-7-5-4-0-|




Author/Artist: System Of A Down
Title: ATWA
Album: Toxicity
Transcribed by: Josh Minnish


Tuned C-G-C-F-A-D



D|------------------------------------------------------------------------------|
A|------------------------------------------------------------------------------|
F|------------------------------------------------------------------------------|
C|-----8-----7-----10-----12------13------12-----10-----8-----8-----7-----10----|
G|------------------------------------------------------------------------------|
C|-0-5---5\3---3/7----7/8----8/10----10\8----8\7----7\5---5-5---5\3---3/7-------|


[Intro]

D|------------------------------------------------------------------------------|
A|------------------------------------------------------------------------------|
F|------------------------------------------------------------------------------|
C|-----12------13------12-----10-----8-----8-----7-----10-----12------13-----12-|
G|------------------------------------------------------------------------------|
C|-7/8----8/10----10\8----8\7----7\5---5-5---5\3---3/7----7/8----8/10----10\8---|
                                                                              

D|------------------------------------------------------------------------------|
A|------------------------------------------------------------------------------|
F|------------------------------------------------------------------------------|
C|-----10-----8-----8-----7-----10-----12------13------12-----10-----8----------|
G|------------------------------------------------------------------------------|
C|-8\7----7\5---5-5---5\3---3/7----7/8----8/10----10\8----8\7----7\5------------|
                                                                              

D|------------------------------------------------------|
A|------------------------------------------------------|
F|------------------------------------------------------|
C|-5-5-5-5-5-5-5-5-5-5-5-5-5-5-5-5-5-5-5-5-5-5-5-5-5-5-5|
G|-5-5-5-5-5-5-5-5-5-5-5-5-5-5-5-5-5-5-5-5-5-5-5-5-5-5-5|
C|-5-5-5-5-5-5-5-5-5-5-5-5-5-5-5-5-5-5-5-5-5-5-5-5-5-5-5|

D|--------------------------------------------------------------|
A|--------------------------------------------------------------|
F|--------------------------------------------------------------|
C|-5-5-5-5-5-5-5-5-5-5-5-5-5-5-5-5-5-5-5-5-5-5-5-5-5-5-5-5-5----|
G|-5-5-5-5-5-5-5-5-5-5-5-5-5-5-5-5-5-5-5-5-5-5-5-5-5-5-5-5-5----|
C|-5-5-5-5-5-5-5-5-5-5-5-5-5-5-5-5-5-5-5-5-5-5-5-5-5-5-5-5-5----|


[Chorus]

D|----------------------------------------------------|
A|----------------------------------------------------|
F|----------------------------------------------------|
C|-5-5-5-5-5-5-5-5-5-5-5-5-5-5-5-5-5-5-5-5-5-5-5-5-5-5|
G|-5-5-5-5-5-5-5-5-5-5-5-5-5-5-5-5-5-5-5-5-5-5-5-5-5-5|
C|-5-5-5-5-5-5-5-5-5-5-5-5-5-5-5-5-5-5-5-5-5-5-5-5-5-5|

D|-------------------------------------------------------------|
A|-------------------------------------------------------------|
F|-------------------------------------------------------------|
C|-5-5-5-5-5-5-5-5-5-5-5-5-5-5-5-5-5-5-5-5-5-5-5-5-5-5-5-5h6---|
G|-5-5-5-5-5-5-5-5-5-5-5-5-5-5-5-5-5-5-5-5-5-5-5-5-5-5-5-5h6---|
C|-5-5-5-5-5-5-5-5-5-5-5-5-5-5-5-5-5-5-5-5-5-5-5-5-5-5-5-5h6---|




[Chorus 2]

D|-----------------------------------------------|
A|-----------------------------------------------|
F|-----------------------------------------------|
C|-5-5-5-5h6-5-5-5-5h6-5-5-5-5h6-5-5-5-5h6-------|
G|-5-5-5-5h6-5-5-5-5h6-5-5-5-5h6-5-5-5-5h6-------|
C|-5-5-5-5h6-5-5-5-5h6-5-5-5-5h6-5-5-5-5h6-------|
 (I don't see)                                                         

D|-------------------------------------------------------|
A|-------------------------------------------------------|
F|-12-12\10-10/14-14/15-15/17-17\15-15\14-14\12-12-------|
C|-------------------------------------------------------|
G|-10-10\8--8-/12-12/13-13/15-15\13-13\12-12\10-10-------|
C|-------------------------------------------------------|


[Solo]

D|------------------------------------------------------------------------------|
A|------------------------------------------------------------------------------|
F|-12-12-12-12-12-12-12-10-10-10-10-10-10-10-10-14-14-14-14-14-14-14-14-15-15---|
C|------------------------------------------------------------------------------|
G|------------------------------------------------------------------------------|
C|------------------------------------------------------------------------------|
 This here you use an artificial harmonic                                     

D|------------------------------------------------------------------------------|
A|------------------------------------------------------------------------------|
F|-15-15-15-15-15-15-17-17-17-17-17-17-17-17-15-15-15-15-15-15-15-15-14-14-14---|
C|------------------------------------------------------------------------------|
G|------------------------------------------------------------------------------|
C|------------------------------------------------------------------------------|
                                                                              

D|---------------------------------------------------------------|
A|---------------------------------------------------------------|
F|-14-14-14-14-14-12v--------------------------------------------|
C|--------------------5-5\3-3/7-7/8-8/10-10\8-8\7-7\5-5-5-5-5----|
G|--------------------5-5\3-3/7-7/8-8/10-10\8-8\7-7\5-5-5-5-5----|
C|--------------------5-5\3-3/7-7/8-8/10-10\8-8\7-7\5-5-5-5-5----|
                                                                              

D|-------------------------------------------|
A|-------------------------------------------|
F|-------------------------------------------|
C|-5-5\3-3/7-7/8-8/10-10\8-8\7-7\5-5-5-5-5---|
G|-5-5\3-3/7-7/8-8/10-10\8-8\7-7\5-5-5-5-5---|
C|-5-5\3-3/7-7/8-8/10-10\8-8\7-7\5-5-5-5-5---|
                                                                              
D|---------------------------------------------------|
A|---------------------------------------------------|
F|---------------------------------------------------|
C|-5-5-5-5-5-5-5-5-5-5-5-5-5-5-5-5-5-5-5-5-5-5-5-5-5-|
G|-5-5-5-5-5-5-5-5-5-5-5-5-5-5-5-5-5-5-5-5-5-5-5-5-5-|
C|-5-5-5-5-5-5-5-5-5-5-5-5-5-5-5-5-5-5-5-5-5-5-5-5-5-|
                                                    
D|----------------------------------------------------------------|
A|----------------------------------------------------------------|
F|----------------------------------------------------------------|
C|5-5-5-5-5-5-5-5-5-5-5-5-5-5-5-5-5-5-5-5-5-5-5-5-5-5-5-5-5h6-----|
G|5-5-5-5-5-5-5-5-5-5-5-5-5-5-5-5-5-5-5-5-5-5-5-5-5-5-5-5-5h6-----|
C|5-5-5-5-5-5-5-5-5-5-5-5-5-5-5-5-5-5-5-5-5-5-5-5-5-5-5-5-5h6-----|
                                                                        
D|---------------------------------------------|
A|---------------------------------------------|
F|---------------------------------------------|
C|-5-5-5-5h6-5-5-5-5h6-5-5-5-5h6-5-5-5-5h6-----|
G|-5-5-5-5h6-5-5-5-5h6-5-5-5-5h6-5-5-5-5h6-----|
C|-5-5-5-5h6-5-5-5-5h6-5-5-5-5h6-5-5-5-5h6-----|





Song: "Science"
Artist: System of A Down
Album: Toxicity
Transcribed By: Josh Minnish

Tuning: Drop D, 1 Step Down (C,G,C,F,A,D)

< > - harmonics


[Intro]

D|-----------------------------------------------------------------------------|
A|-----------------------------------------------------------------------------|
F|-<7>-----------------------------------<7>-----------------------------------|
C|-----------------------------------------------------------------------------|
G|-----5-5-5-5-5-5-5-5-5-5-5-5-5-5-5-5-5-----5-5-5-5-5-5-5-5-5-5-5-5-5-5-5-5-5-|
C|-----------------------------------------------------------------------------|
PM    . . ... . . ... . . ... . .     . . ... . . ... . . ... . .


D|---------------------------------------------------------------------|
A|---------------------------------------------------------------------|
F|-<7>---------------<7>---------------<7>-----<7>-----<7>-----<7>-----|
C|---------------------------------------------------------------------|
G|-----5-5-5-5-5-5-5-----5-5-5-5-5-5-5-----5-5-----5-5-----5-5-----5-5-|
C|---------------------------------------------------------------------|
      . . ... . .     . . ... . .     . .     . .     . .     . .


[Chorus]

D|---------------------------------------------------------|
A|---------------------------------------------------------|
F|-7-------------7-------------7---------------------------|
C|-7-------------7-------------7---------------------5-----|
G|-5-0-0-0-0-0-0-5-0-0-0-0-0-0-5-0-0-0-0-0-0---5-7-8---8-7-|
C|---0-0-0-0-0-0---0-0-0-0-0-0---0-0-0-0-0-0-8-------------|
PM  . . . . . .   . . . . . .   . . . . . .


[Verse]

D|-------------------------------------------------------------------------|
A|-------------------------------------------------------------------------|
F|-------------------------------------------------------------------------|
C|-------------------------------------------------------------------------|
G|-6-5-5-5-5-5-5-5-5-5-5-5-5-5-5-5-5-5-6-5-5-5-5-5-5-5-5-5-5-5-5-5-5-5-5-5-|
C|-------------------------------------------------------------------------|
PM  . . . . . . . . . . . . . . . . .   . . . . . . . . . . . . . . . . .

D|---------------------------------------------------------|
A|---------------------------------------------------------|
F|---------------------------------------------------------|
C|---------------------------------------------------------|
G|-6-5-5-5-5-5-5-5-6-5-5-5-5-5-5-5-6-5-5-6-5-5-6-5-5-6-5-5-|
C|---------------------------------------------------------|
    . . ... . .   . . ... . .   . .   . .   . .   . .


[Verse 2]

D|-------------------------------------------------------------------------|
A|-------------------------------------------------------------------------|
F|-------------------------------------------------------------------------|
C|-------------------------------------------------------------------------|
G|-6-5-5-5-5-5-5-5-5-5-5-5-5-5-5-5-5-5-6-5-5-5-5-5-5-5-5-5-5-5-5-5-5-5-5-5-|
C|-------------------------------------------------------------------------|
PM  . . . . . . . . . . . . . . . . .   . . . . . . . . . . . . . . . . .

D|---------------------------------------------------------------------|
A|---------------------------------------------------------------------|
F|-<7>---------------<7>---------------<7>-----<7>-----<7>-----<7>-----|
C|---------------------------------------------------------------------|
G|-----5-5-5-5-5-5-5-----5-5-5-5-5-5-5-----5-5-----5-5-----5-5-----5-5-|
C|---------------------------------------------------------------------|
      . . . . . . .     . . . . . . .     . .     . .     . .     . .


[Bridge]

D|------------------------|
A|------------------------|
F|------------------------|
C|-0--2--3----------5-----|
G|-0--2--3----5-7-8---8-7-|
C|-0--2--3--8-------------|


[Interlude]

(palm mute)

D|---------------------------|
A|---------------------------|
F|-------------------5-------|
C|---5-7---7-8---7-8---8-7-8-|
G|-5-----5-----5-------------|
C|---------------------------|


[Fill]

D|----------------------|
A|----------------------|
F|----------------------|
C|-3-3-5-3-2--2-2h3-2---|
G|--------------------3-|
C|----------------------|


[Interlude 2]

D|------------------------------------------------------------------------|
A|------------------------------------------------------------------------|
F|-0-2-3-0-2-2-2-2--0-2-5-3-2-2-2-2--0-2-3-0-2-2-2-2----------------------|
C|----------------------------------------------------3-3-5-3-2-2-2h3-2---|
G|----------------------------------------------------------------------3-|
C|------------------------------------------------------------------------|


[Interlude Fill]

D|---------------------------------|
A|---------------------------------|
F|-0-2-3-0-2-2-2-3-0-2-2-2-3-0-2-2-|
C|---------------------------------|
G|---------------------------------|
C|---------------------------------|


[Outro]

D|----------------------------------------------------------------------------|
A|----------------------------------------------------------------------------|
F|-7-------------------9-------------------10---------------------------------|
C|-7-------------------9-------------------10---------------------------5-----|
G|-5-5-5-5-5-5-5-5-5-5-7-7-7-7-7-7-7-7-7-7--8-8-8-8-8-8-8-8-8-8---5-7-8---8-7-|
C|--------------------------------------------------------------8-------------|
PM  . . . . . . . . .   . . . . . . . . .    . . . . . . . . .




Song: "Shimmy"
Artist: System of A Down
Album: Toxicity
Transcribed By: Josh Minnish

Tuning: Drop D, 1 Step Down (C,G,C,F,A,D)

 INTRO: (palm mute)
D|---------------------------------|
A|---------------------------------|
F|---------------------------------|
C|---------------------------------|
G|---------------------------------|
C|-3-2-0-2-3-2-0-2-3-2-0-2-3-2-0-2-|

 MAIN RIFF:
D|--------------------------------------------|
A|--------------------------------------------|
F|--------------------------------------------|
C|-3-2-2-2-2--7-6-6-6-6--3-2-2-2-2--7-6-6-6-6-|
G|-3-2-2-2-2--7-6-6-6-6--3-2-2-2-2--7-6-6-6-6-|
C|-3-2-2-2-2--7-6-6-6-6--3-2-2-2-2--7-6-6-6-6-|


[Verse]

D|--------------------------------------------|
A|--------------------------------------------|
F|--------------------------------------------|
C|-------------------------2--2-3-2-0---------|
G|-3-2-0-2-3-2-0-2-3-2-0-2-2----------3-2-0---|
C|-3-2-0-2-3-2-0-2-3-2-0-2-2----------------6-|
PM. . . . . . . . . . . . 

D|------------------------------------------------|
A|------------------------------------------------|
F|--------------------------------1-2-1h2p1-------|
C|-------------------------2--2-3-----------3-2-0-|
G|-3-2-0-2-3-2-0-2-3-2-0-2-2----------------------|
C|-3-2-0-2-3-2-0-2-3-2-0-2-2----------------------|
PM. . . . . . . . . . . . 

D|--------------------------------------------|
A|--------------------------------------------|
F|--------------------------------------------|
C|-------------------------2--2-3-2-0---------|
G|-3-2-0-2-3-2-0-2-3-2-0-2-2----------3-2-0---|
C|-3-2-0-2-3-2-0-2-3-2-0-2-2----------------6-|
PM. . . . . . . . . . . . 

D|----------------------------------------------------------------|
A|----------------------------------------------------------------|
F|--------------------------------1-2-1h2p1-----------------------|
C|-------------------------2--2-3-----------3-2-3-2-0-------------|
G|-3-2-0-2-3-2-0-2-3-2-0-2-2--------------------------3-2-3-2-0---|
C|-3-2-0-2-3-2-0-2-3-2-0-2-2------------------------------------6-|
PM. . . . . . . . . . . . 


[Chorus]

D|----------------------------------------------|
A|----------------------------------------------|
F|----------------------------------------------|
C|-2-2--6-6--2-2--6-6--2-2--6-6--2-2--7-6-6-6-6-|
G|-2-2--6-6--2-2--6-6--2-2--6-6--2-2--7-6-6-6-6-|
C|-2-2--6-6--2-2--6-6--2-2--6-6--2-2--7-6-6-6-6-|
PM                                   . . . . 


[Chorus 2]

D|----------------------------------------|
A|----------------------------------------|
F|----------------------------------------|
C|-2-2--6-6--2-2--6-6--2-2--6-6--2-2--6-6-|
G|-2-2--6-6--2-2--6-6--2-2--6-6--2-2--6-6-|
C|-2-2--6-6--2-2--6-6--2-2--6-6--2-2--6-6-|


[Bridge]

D|-----------------------------------------------------------|
A|-----------------------------------------------------------|
F|-----------------------------------------------------------|
C|-3-2---3-2---3-2---3-2---3-2-3-2-3-2-3-2-3-2-3-2-3-2-2-2-2-|
G|-3-2---3-2---3-2---3-2---3-2-3-2-3-2-3-2-3-2-3-2-3-2-2-2-2-|
C|-3-2---3-2---3-2---3-2---3-2-3-2-3-2-3-2-3-2-3-2-3-2-2-2-2-|
PM                                          ....

 INTERLUDE: (palm mute, play several times then grad. release)
D|-----------------|
A|-----------------|
F|-----------------|
C|-2-3-2-0---------|
G|---------3-2-0---|
C|---------------6-|


[Outro]

D|----------------------------|
A|----------------------------|
F|----------------------------|
C|-3-2-0-2-3-2-0-2-3-2-0-2--2-|
G|-3-2-0-2-3-2-0-2-3-2-0-2--2-|
C|-3-2-0-2-3-2-0-2-3-2-0-2--2-|


Artist: System Of A Down
Album: Toxicity
Song: Toxicty
Transcribed By: Josh Minnish

Drop C:
(C G C F A D)


[Intro]

D|----------------------------------------------------------------------------|
A|----------------------------------------------------------------------------|
F|----14----14----14----14----14----14----17----17----17----17----17----17----|
C|-12----12----12----12----12----12----15----15----15----15----15----15-------|
G|----------------------------------------------------------------------------|
C|----------------------------------------------------------------------------|


D|----------------------------------------------------------|
A|----------------------------------------------------------|
F|----------------------------------------------------------|
C|---7---7---7---7---7---7---10---10---10---10---10---10----|
G|-5---5---5---5---5---5---8----8----8----8----8----8-------|
C|----------------------------------------------------------|

Fig 1.

D|----------------------------------------------------------------------------|
A|----------------------------------------------------------------------------|
F|----14----14----14-15----15-14----14----17----19----19-17----17----15----15-|
C|-12----12----12-------12-------12----15----15----15-------15----15----15----|
G|----------------------------------------------------------------------------|
C|----------------------------------------------------------------------------|

Fig 1a.

D|-------------------------------------------------------------|
A|-------------------------------------------------------------|
F|-------------------------------------------------------------|
C|---7---7---7-8---8-7---7---10---12---12-10---10---8---8------|
G|-5---5---5-----5-----5---8----8----8-------8----8---8--------|
C|-------------------------------------------------------------|


[Chorus]

D|-------------------------------------------------------------------|
A|-------------------------------------------------------------------|
F|-------------------------------------------------------------------|
C|-------------------------------------------------------------------|
G|-0-----------------0-----------8---------8---------7-------7-7-7---|
C|-0---------3-2-0-2-0-----------8---------8---------7-------7-7-7---|

D|----------------------------------------------------------------------------|
A|----------------------------------------------------------------------------|
F|----------------------------------------------------------------------------|
C|----------------------------------------------------------------------------|
G|-------------------------------------------------8-------8-8-8--7----7-7-7--|
C|-3-2-0-2-0-0-3-2-0-2-0-0-3-2-0-2-0-0-3-2-0-2-0-0-8-------8-8-8--7----7-7-7--|

Play Fig 1 and 1a. w/

D|---------------------------------------------------------|
A|---------------------------------------------------------|
F|---------------------------------------------------------|
C|---------------------------------------------------------|
G|---0---0---0---0---0---0---3---3---3---3---3---3---------|
C|-0---0---0---0---0---0---3---3---3---3---3---3-----------|

D|-----------------------------------------------------------------|
A|-----------------------------------------------------------------|
F|-----------------------------------------------------------------|
C|-----------------------------------------------------------------|
G|---0---0---0-1---1-0---0---3---3---3---3---3---3---3---3---------|
C|-0---0---0-----0-----0---3---3---3---3---3---3---3---3---3-------|


[Verse]

D|----------------------------------------------------------|
A|----------------------------------------------------------|
F|--------------------------------9------10------9----------|
C|---7---7---7---7---7---7---10-----10------10-----10-------|
G|-5---5---5---5---5---5---8----8------8-------8------8-----|
C|----------------------------------------------------------|

D|-------------------------------------------------------------|
A|-------------------------------------------------------------|
F|-------------------------------------------------------------|
C|---7---7---7---7-8---8-7---7---10---12---12-10---10-8---8----|
G|-5---5---5---5-----5-----5---8----8----8-------8------8------|
C|-------------------------------------------------------------|


Eating seeds...(When he sings this Play this)

D|----------------------------------------------------------------------------|
A|----------------------------------------------------------------------------|
F|----------------------------------------------------------------------------|
C|----------------------------------------------------------------------------|
G|----------------------------------------------------------------------------|
C|-0---0-0-0--0-0-0--0---0-0-0--0-0-0--3---3-3-3--3-3-3--3----3-3-3-3--3-3----|


[Interlude]

D|-----------------------------------------------------------------------|
A|-----------------------------------------------------------------------|
F|-----------------------------------------------------------------------|
C|-----------------------------------------------------------------------|
G|-----------------------------------------------------------------------|
C|-12--12--12-12-12-15-12-12-14b---12--12--12-12-12-15-12-12-14~~~-------|

D|----------------------------------------------------------------------------|
A|----------------------------------------------------------------------------|
F|----------------------------------------------------------------------------|
C|----------------------------------------------------------------------------|
G|----------------------------------------------------------------------------|
C|-3-2-0-0-0-0-3-2-0-0-0-0-3-2-0-0-0-0-3-2-0-0-0-0-3-2-0-0-0-0-3-2-0-0-0-0----|

D|--------------------------------------------------------------------|
A|--------------------------------------------------------------------|
F|--------------------------------------------------------------------|
C|--------------------------------------------------------------------|
G|--------------------------------------------------------------------|
C|-0--0--0-0-0-3-2-0-2b--0--0--0-0-0-3-2-0-2b--0--0--0-0-0-3-2-0-2b---|


[Outro]

D|----------------------------------------------------------------------------|
A|----------------------------------------------------------------------------|
F|----------------------------------------------------------------------------|
C|----------------------------------------------------------------------------|
G|----------------------------------------------------------------------------|
C|-0--0-0-3-2-0-2b---0-0-0-0-0-3-2-0-2b---0--0-0-3-2-0-2b--0-0-0-0-0-3-2-0-2--|





Song: "Psycho"
Artist: System of A Down
Album: Toxicity
Transcribed By: Josh Minnish
Tuning: Drop D, Down 1 Step (C,G,C,F,A,D)

^ - bend 1 step up
^(n) - bend 1/2 step and release


[Intro]

(play first part 2X and then 2nd part)

D|---------------------------------------------------------------------|
A|-17-X-17-X-17-XX-17-X-17-XX-17-X-17-X-17-XX-15-X-15-XX-15-X-15-XX-15-|
F|---------------------------------------------------------------------|
C|---------------------------------------------------------------------|
G|---------------------------------------------------------------------|
C|---------------------------------------------------------------------|

D|------------------|---------------------------------------------------|
A|-XX-15-XX-15-X-15-|-18^(keep picking and grad. bend up to 1 1/2 steps)|
F|------------------|---------------------------------------------------|
C|------------------|---------------------------------------------------|
G|------------------|---------------------------------------------------|
C|------------------|---------------------------------------------------|


[Intro 2]

D|----------------------------|
A|----------------------------|
F|----------------------------|
C|-2-2-2--2-2-2--2-2-2--2-2-2-|
G|-2-2-2--2-2-2--2-2-2--2-2-2-|
C|-2-2-2--2-2-2--2-2-2--2-2-2-|


[Chorus]

D|-------------------------------|
A|-------------------------------|
F|-------------------------------|
C|-2-X-X--2--X-X--2--X-X--2--X-X-|
G|-2-X-X--2--X-X--2--X-X--2--X-X-|
C|-2-X-X--2--X-X--2--X-X--2--X-X-|


[Chorus Fill]

D|------------------|
A|------------------|
F|------------------|
C|-2-XX-2-XX-2-XX-2-|
G|-2-XX-2-XX-2-XX-2-|
C|-2-XX-2-XX-2-XX-2-|


[Chorus B]

D|-------|
A|-------|
F|-------|
C|-0---3-|
G|-0---3-|
C|-0---3-|


[Chorus C]

D|----------------|
A|----------------|
F|----------------|
C|-0---3---2--0-2-|
G|-0---3---2--0-2-|
C|-0---3---2--0-2-|


[Verse]

D|---------------------------------------------------------|
A|-9--9--9-9----9-----9-10--10-12-13-13^-13-12-13-12-10-10-|
F|-X--X--X-X-------------X---------------------------------|
C|-6--6--6-6--6---6-6----7---------------------------------|
G|---------------------------------------------------------|
C|---------------------------------------------------------|

D|-----------------------|
A|-10---10---10-10-12-10-|
F|--X------------X--X--X-|
C|--7-7----7-----7--9--7-|
G|-----------------------|
C|-----------------------|


[Solo]

D|-----------------------------------------------------|
A|-12--10-12-13--12-13-12h13p12------12-------------12-|
F|------------------------------14------14-13-13h14----|
C|-----------------------------------------------------|
G|-----------------------------------------------------|
C|-----------------------------------------------------|

D|---------------12-------------------------------------------------|
A|-10-12---10-12-----13-12-13-12h13p12------------------12----------|
F|-------------------------------------14^(14)^(14)-14-----14-13-13-|
C|------------------------------------------------------------------|
G|------------------------------------------------------------------|
C|------------------------------------------------------------------|

D|-----------------------------------|
A|-----------------12----------------|
F|-13-14-13--13-14----14-13-14----14-|
C|-----------------------------14----|
G|-----------------------------------|
C|-----------------------------------|

D|--------------------------------------------------------------|
A|-12-12-12-12-12-12-10-12-13-13-13-12-13-12-10-10-10-10-10-10--|
F|---9--9--9--9--9--9--9--9--9--9--9--9--9--9--9--9--9--9--9--9-|
C|--------------------------------------------------------------|
G|--------------------------------------------------------------|
C|--------------------------------------------------------------|

D|---------------------------------------------------------------|
A|-12-12-10-9-9-10-12-12-12-12-12-12-10-12-12-12-12-12-12-10-12--|
F|---9--9--9-9-------9--9--9--9--9--9--9--9--9--9--9--9--9--9--9-|
C|---------------------------------------------------------------|
G|---------------------------------------------------------------|
C|---------------------------------------------------------------|

D|-10-10-10----------------------------------------|
A|----------12-13-12-10-10-10-10-10-10-12---10---9-|
F|---9--9--9--9--9--9--9--9--9--9--9--9---9----9---|
C|-------------------------------------------------|
G|-------------------------------------------------|
C|-------------------------------------------------|


Author/Artist: System of a Down
Title: Aerials
Album: Toxicity
Transcribed by: Josh Minnish


Tuned (C, G, C, F, A, D)

D|---------------------------------------------------------------------------|
A|---------------------------------------------------------------------------|
F|---------------------------------------------------------------------------|
C|------0------0------0------0------0---------0------0------0------0------0--|
G|----0------0------0------0------0---------0------0------0------0------0----|
C|--3------2------0------0------0------0--5------3------2------2------2------|

D|------------------------------------------------------------------------------|
A|------------------------------------------------------------------------------|
F|------------------------------------------------------------------------------|
C|---------0------0------0------0----0----0------0------0------0------0------0--|
G|-------0------0------0------0----------------0------0------0------0------0----|
C|--2--3------5------7------8------7----5----3------2------0------0------0------|

D|-----------------------------------------------------------------------------------|
A|-----------------------------------------------------------------------------------|
F|-----------------------------------------------------------------------------------|
C|----------0-------0------0------0------0-----------0-------0------0------0------0--|
G|--------0-------0------0------0------0-----------0-------0------0------0------0----|
C|--0--12------10------7------7------7------7-/-14------10------7------7------7------|

D|---------------------------------------------------------------------------------------|
A|---------------------------------------------------------------------------------------|
F|---------------------------------------------------------------------------------------|
C|----------0-------0-------0-------0----0-------0---------0-------0-------0-----0----0--|
G|--------0-------0-------0-------0---------------------0-------0-------0-----0-----0----|
C|--7--12------14------15------17------15----14------12------10-----12----12----12-------|


[Verse]

D|---------------------------------------------------------------------|
A|---------------------------------------------------------------------|
F|----------------------------12-----------10-----------9-----------7--|
C|--8-8-8-8-8-8-8-8--0-0-0-0------0-0-0-0------0-0-0-0-----0-0-0-0-----|
G|--8-8-8-8-8-8-8-8--0-0-0-0--10--0-0-0-0--8---0-0-0-0--7--0-0-0-0--5--|
C|--8-8-8-8-8-8-8-8--0-0-0-0------0-0-0-0------0-0-0-0-----0-0-0-0-----|
P.M.                 - - - -      - - - -      - - - -     - - - -


[Bridge]

D|---------------------------------------------------------------------------|
A|---------------------------------------------------------------------------|
F|---------------------------------------------------------------------------|
C|------0------0------0------0------0---------0------0------0------0------0--|
G|----0------0------0------0------0---------0------0------0------0------0----|
C|--3------2------0------0------0------0--5------3------2------2------2------|

D|------------------------------------------------------------------------------|
A|------------------------------------------------------------------------------|
F|------------------------------------------------------------------------------|
C|---------0------0------0------0----0----0------0------0------0------0------0--|
G|-------0------0------0------0----------------0------0------0------0------0----|
C|--2--3------5------7------8------7----5----3------2------0------0------0------|


[Interlude]

D|-----------------------------------|
A|-----------------------------------|
F|-----------------------------------|
C|--7-8-7-8-7-8-7-8-7-8-7-8-7-8-7-8--|
G|--7-8-7-8-7-8-7-8-7-8-7-8-7-8-7-8--|
C|--7-8-7-8-7-8-7-8-7-8-7-8-7-8-7-8--|
P.M.                - - - - - - - -


[Breakdown]

D|----------------------------------------------------|
A|----------------------------------------------------|
F|----------------------------------------------------|
C|--3--2--0--5--3--2--3--5--7--8--7--5--3--2--0--12/--|
G|--3--2--0--5--3--2--3--5--7--8--7--5--3--2--0--12/--|
C|--3--2--0--5--3--2--3--5--7--8--7--5--3--2--0--12/--|



************************************

| x  Dead note
| h  Hammer-on
| p  Pull-off
| >  Accented note
| b  Bend
| /  Slide up
| \  Slide down
| ~  Vibrato

************************************
Suggest correction
comments
print report bad tab
59 comments total. Showing first comments.
+1 reply
VaYnE 0 Feb 19, 2002 12:00 AM

dude kick ass u did great work!!!! oh and thanks u for puting Psycho dude the solo in it is so cool....dude if anyone says these tabs are shit ignore them dude u rule!

0 reply
Dill_Daddy 0 Feb 20, 2002 12:00 AM

You are the GREATEST!!!!!!!!!!

0 reply
slipknot_133 10 Feb 20, 2002 12:00 AM

you fuckin rock man thanks for the toxicity album tab

guest
You may want to rate the tab now too:
select rating
Wanna post a correction for this tab? Suggest correction