Oops, an error
Loading. Please wait.
We have an official Toxicity tab made by UG professional guitarists. Check out the tab »
×
114,085 views 246 this week
27 commentsread comments
1 2 3 4 5
x 74
add to favorites
×
Save as Personal and add changes to this tab that will be seen only by you. Learn more ›
×
You can save this tab as Personal to edit and correct it or add notes. All changes will be seen only by you. Learn more »
launch autoscroll
font size
0
reset
guitar tuner
backing track
0:00
0:00
edit
Autoscroll
slow
fast
+/-
esc
set tempo
stop
Author
Difficulty
Unregistered
[Intro]

F|--------------------------------|
C|--------------------------------|
G|------------No-Bass-------------|
C|--------------------------------|


[Intro]

F|-----------------------------------------|
C|-----------------------------------------|
G|-----------------------------------------| 
C|--0--3-2-0-2-0---8--8-8--7--7-7----------|(x2)

F|----------------------------------------------------------------------------|
C|----------------------------------------------------------------------------|
G|----------------------------------------------------------------------------|
C|--3-2-0-0-0-0-3-2-0-0-0-0-3-2-0-0-0-0-3-2-0-0-0-0---8--8-8--7--7-7----------|

F|-----------------------------------------|
C|-----------------------------------------|
G|-----------------------------------------|
C|--0--3-2-0-2-0---8--8-8--7--7-7----------|


[Verse 1]

F|-------------------------------------------------------|
C|-------------------------------------------------------|
G|-----------------------------15--15--15--15--15--15----| 
C|--12--12--12-12-12--12--12-12--15--15--15--15--15--15--|(x2)


[Chorus 1]

F|-----------------------------------------|
C|-----------------------------------------|
G|-----------------------------------------|
C|--0--3-2-0-2-0---8--8-8--7--7-7----------|(x2)

F|----------------------------------------------------------------------------|
C|----------------------------------------------------------------------------|
G|----------------------------------------------------------------------------|
C|--3-2-0-0-0-0-3-2-0-0-0-0-3-2-0-0-0-0-3-2-0-0-0-0---8--8-8--7--7-7----------|

F|-----------------------------------------|
C|-----------------------------------------|
G|-----------------------------------------|
C|--0--3-2-0-2-0---8--8-8--7--7-7----------|


[Verse 2]

F|-------------------------------------------------------|
C|-------------------------------------------------------|
G|-----------------------------15--15--15--15--15--15----| 
C|--12--12--12-12-12--12--12-12--15--15--15--15--15--15--|(x6)


[Chorus 2]

F|----------------------------------------|
C|----------------------------------------|
G|----------------------------------------| 
C|--0--3-2-0-2-0---8-8-8--7--7-7----------|(x2)

F|----------------------------------------------------------------------------|
C|----------------------------------------------------------------------------|
G|----------------------------------------------------------------------------|
C|--3-2-0-0-0-0-3-2-0-0-0-0-3-2-0-0-0-0-3-2-0-0-0-0---8--8-8--7--7-7----------|

F|-----------------------------------------|
C|-----------------------------------------|
G|-----------------------------------------|
C|--0--3-2-0-2-0---8--8-8--7--7-7----------|


[Bridge]

F|----------------|
C|----------------|
G|----No--Bass----|
C|----------------|

F|-------------------------------------------------------|
C|-------------------------------------------------------|
G|-------------------------------------------------------| 
C|--3-2-0-0-0-0-3-2-0-0-0-0-3-2-0-0-0-0-3-2-0-0-0-0------|(x2)

F|------------------------------------------------|
C|------------------------------------------------|
G|------------------------------------------------|
C|--0--0-0-0-0-3-2-0-2--0--0-0-0-0-3-2-0-2--------|(x2)

F|-------------------------------------------------------|
C|-------------------------------------------------------|
G|-------------------------------------------------------| 
C|--3-2-0-0-0-0-3-2-0-0-0-0-3-2-0-0-0-0-3-2-0-0-0-0------|(x2)


[Chorus 3]

F|------------------------------------------|
C|------------------------------------------|
G|------------------------------------------|
C|--0----3-2-0-2-0-----8--8-8--7--7-7-------|
         ^With Drums
F|------------------------------------------|
C|------------------------------------------|
G|------------------------------------------|
C|--0----3-2-0-2-0-----8--8-8--7--7-7-------|

F|----------------------------------------------------------------------------|
C|----------------------------------------------------------------------------|
G|----------------------------------------------------------------------------|
C|--3-2-0-0-0-0-3-2-0-0-0-0-3-2-0-0-0-0-3-2-0-0-0-0---8--8-8--7--7-7----------|

F|-----------------------------------------|
C|-----------------------------------------|
G|-----------------------------------------|
C|--0--3-2-0-2-0---8--8-8--7--7-7----------|


[Outro]

F|-------------------------------------------------------|
C|-------------------------------------------------------|
G|-------------------------------------------------------| 
C|--3-2-0-0-0-0-3-2-0-0-0-0-3-2-0-0-0-0-3-2-0-0-0-0------|x2)

F|------------------------------------------------|
C|------------------------------------------------|
G|------------------------------------------------|
C|--0--0-0-0-0-3-2-0-2--0--0-0-0-0-3-2-0-2--------|(x2)

            
            
Suggest correction
Creating personal tab
Creating personal tab
You can edit any tab online and save it as your Personal.

You can edit, replace or remove any tab part or add personal notes – all changes will be seen only by you.

Personal tabs can be accessed anytime from any device, even offline.
Learn more »
comments
print report bad tab
27 comments total. Showing first comments.
0 reply
ZEiNDEiN 91 Dec 14, 2005 05:12 PM

great tab! BASS RULEZ

+4 reply
Masehunter 10 Jan 06, 2006 09:33 PM

this tab is the best one for toxicity. in the chorus tho, i think the -7-77-8-88- has an extra note on each like -7-777-8-888- i could be wrong tho, just listen to the song, 5 star tab tho

+1 reply
goest 63 Feb 02, 2006 08:51 AM

masehunters right, there is that extra note...nothing big thou
5 stars

guest
Wanna post a correction for this tab? Suggest correction