Oops, an error
Loading. Please wait.
We have an official Violent Pornography tab made by UG professional guitarists. Check out the tab »
×
3,043 views 1 this week
3 commentsread comments
1 2 3 4 5
1 last vote to show rating
add to favorites
×
Save as Personal and add changes to this tab that will be seen only by you. Learn more ›
×
You can save this tab as Personal to edit and correct it or add notes. All changes will be seen only by you. Learn more »
launch autoscroll
font size
0
reset
guitar tuner
edit
Autoscroll
slow
fast
+/-
esc
set tempo
stop
/ = Slide

Intro
|--------------------|
|--------------------|
|--------------------|
|--0--1--2--3--4--5--|   x2


Verse:

|-------------------------|
|-------------------------|
|--5-6---6-7---7-6---6-5--|
|-------------------------|


Interlude
|--------------------------------------|
|--------------------------------------|
|--------------------------------------|
|---00-0--00-000-0--00-000-0--00-1-4---|

|--------------------------------------|
|--------------------------------------|
|--------------------------------------|
|---00-0--00-000-0--00-000-0--00-4-2---|

|-----------------------------------------|
|-----------------------------------------|
|-----------------------------------------|
|---00-0--00-000-0--00-000-0--00-1-2--4---|

|--------------------------------------|
|--------------------------------------|
|--------------------------------------|
|---00-0--00-000-0--00-000-0--00-1-4---|

Chorus

|------------------------------|
|------------------------------|
|------------------------------|
|--0--4--5--7--9--10--12/-8----|    x2

|----------------------------------------------------------------------------------------|
|----------------------------------------------------------------------------------------|
|----------------------------------------------------------------------------------------|
|-00000000-44444444-55555555-77777777-99999999-1010101010101010-1212121212121212/88888888|

|------------------------------|
|------------------------------|
|------------------------------|
|--0--4--5--7--9--10--12--8----| 

Outro
|--------------------|
|--------------------|
|--------------------|
|--0--1--2--3--4--5--|   x2

            
            
Suggest correction
Creating personal tab
Creating personal tab
You can edit any tab online and save it as your Personal.

You can edit, replace or remove any tab part or add personal notes – all changes will be seen only by you.

Personal tabs can be accessed anytime from any device, even offline.
Learn more »
Give kudos to tab author, rate the tab!
1 2 3 4 5
comments
print report bad tab
3 comments total.
0 reply
dirtykiddan 10 Oct 11, 2015 12:42 PM

Super easy..

0 reply
micas.sacim 10 Sep 11, 2016 03:23 PM

Ez as pie, Super awesome cover!!

0 reply
thorongil_knight 20 Mar 19, 2017 08:32 PM, edited on March 20 2017, 12:56 am

I think intro, interlude and outro are wrongs..

guest
You may want to rate the tab now too:
select rating
Wanna post a correction for this tab? Suggest correction