Oops, an error
Loading. Please wait.
1,191 views 3 this week
6 commentsread comments
1 2 3 4 5
x 7
add to favorites
×
Save as Personal and add changes to this tab that will be seen only by you. Learn more ›
×
You can save this tab as Personal to edit and correct it or add notes. All changes will be seen only by you. Learn more »
launch autoscroll
font size
0
reset
how to read this tab
guitar tuner
backing track
0:00
0:00
edit
Autoscroll
slow
fast
+/-
esc
set tempo
stop
Here is how I play X, I'm pretty sure it's right, I saw the books version, and mine is basically the same

Regular SoAD tuning- D A F C G C

Intro
P.M.-----------------|
D--------------------|
A--------------------|
F--------------------|
C10p0-12p0-13p0-12p0-|
G--------------------|
C--------------------|

Repeat a few times then play this with pinch harmonics

D-------------|
A-------------|
F-------------|
C-10-12-13-12-|
G-------------|
C-------------|

Little Interlude bit:
D--------------------------------------------------|
A--------------------------------------------------|
F-------------9/10-10-10---------------------------|
C------------10/11-11-11---------------------------|
G0-0-0-0-0-0--------------0-0-0-0-0-0-10/13-13-13--|
C0-0-0-0-0-0--------------0-0-0-0-0-0-10/13-13-13--|

It ends with this
P.M.--|
D---------|
A---------|
F---------|
C---------|
G10-13-13-|
C10-13-13-|

Verse Bit (Tell your people......)
PM-----------|
D------------|
A------------|
F------------|
C------------|
G10-12-13-12-|
C10-12-13-12-|

When it says we don't need to multiply, release p.m.
 
When he sings no need to nullify, add the p.m. again.

Bridge part
P.M.-------|   |---|  |---------|  |------------|
D-----------10^----10^----------10^-------------|
A-----------------------------------------------|
F-----------------------------------------------|
C-----------------------------------------------|
G-0-0-0-0-0------0------0-0-0-0-----10-12-13-12-|
C-0-0-0-0-0------0------0-0-0-0-----10-12-13-12-|

Thats it, thats all there is
Suggest correction
Creating personal tab
Creating personal tab
You can edit any tab online and save it as your Personal.

You can edit, replace or remove any tab part or add personal notes – all changes will be seen only by you.

Personal tabs can be accessed anytime from any device, even offline.
Learn more »
comments
print report bad tab
6 comments total. Showing first comments.
0 reply
master15 10 May 16, 2002 08:00 PM

Sound good enough for now, until sumbody copy one from a tab book :) . Good job

0 reply
DBone 10 May 17, 2002 08:00 PM

nice one i've wanted this for ages

0 reply
Blink182rocks 200 Jul 09, 2002 08:00 PM

Try This it sounds good to me

D------------------------------------
A------------------------------------
F-0-12-13-12-0-12-13-12--------------
C------------------------------------
G------------------------------------
C------------------------------------

guest
Wanna post a correction for this tab? Suggest correction