Oops, an error
Loading. Please wait.

December Tab

975 views 1 this week
no commentswrite comment
1 2 3 4 5
please rate
add to favorites
launch autoscroll
font size
0
reset
how to read this tab
guitar tuner
Autoscroll
slow
fast
+/-
esc
set tempo
stop
Help us to improve Ultimate-Guitar.com Take our survey!
×
Author
Difficulty
Capo
intermediate
2nd fret
T-cophony - December  

official website   www.t-cophony.com/

just thought i'd add some more info to "chil.w"'s tab.

tuned: DADGAD  capo: 2  with partial capo covering G string on 8th fret

----------------------|
------------7---0-----|
------7-0-----------7-|
7-0-5-----4-------4---|
--------------2-----0-|
4-----5---------------|

------------------7---|
----------------------|
0-----------7-0-------|
--2-7---0-5-----4-----|
--------------------2-|
------4-----5---------|

0---------------------|
----7-0-----------7-0-|
----------7---0-------|
--------2-------5-7-0-|
--4-0-----------------|
------------4-----5---|

----------------------|
--9---0---7-0---------|
----------------7---0-|
4-9---0-4-7-0-2-------|
----2-----0-----------|
------------------4---|

--------7---0---------|
--7-0-----------7-0---|
--------7---0---------|
5-7-0-4-------4-7-0-2-|
----------2-----0-----|
--5-------------------|

--------------7-0-7-0-|
--------7-0-----------|
7---0-----------------|
------4-----4---------|
--5---------------5---|
--5---------------5---|

--(12)---------------7-|
--(12)-0-0-------------|
---**--0-0-------7-0---|
4-(12)-0-0---0-7-------|
--(12)-0-0-9-9---------|
-----------9-9---------|

---0-----------------4-|
---------7-0---------5-|
-----0-------7-0-7-0---|
-----0-4---------------|
-5---5-----------0-----|
-5---5-----------0-----|

-4-5-7-0-7-0-----------|
-5-----------0---7-0---|
-0-----------0-------7-|
-0-----------0-5-------|
---------7---7---------|
---------7---7---------|

-------------7-0-7-0---|
-----------------------|
-0-7-0---0---7-0-7-0-0-|
-------7-0-7---------0-|
---9-----9-------5---5-|
---9-----9-------5---5-|

-------------4-4-5-7-0-|
---7-0-------5-5-------|
-------7-0-7---0---7-0-|
-4-------------0-------|
-----------0-----------|
-----------0-----------|

-7-0-------------------|
---------7-0-----------|
-7-0-0-5-----7-0-7-0---|
-----0---------------5-|
-7---7-----------7-----|
-7---7-----------7-----|

-(12)-----------------|
-(12)-----------------|
----------------------|
-(12)-----------------|
-(12)-----------------|
----------------------|
   ---repeat---

then this: 

|----4--------2-h-0----|
|------2-h-0-----------|
|----------------------|
|----------------------|
|----------------------|
|-5--------------------|
    ---repeat---

|----4--------2-h-0----|
|------2-h-0-----------|
|----------------------|
|----------------------|
|----------------------|
|-9--------------------|
     ---repeat---

|----4--------2-h-0----|
|------2-h-0-----------|
|----------------------|
|----------------------|
|----------------------|
|-5--------------------|
    ---repeat---

|----4--------2-h-0----|
|------2-h-0-----------|
|----------------------|
|----------------------|
|----------------------|
|-9--------------------|

|----4--------2-h-0----|
|------2-h-0-----------|
|----------------------|
|----------------------|
|----------------------|
|-7--------------------|

|----4--------2-h-0----|
|------2-h-0-----------|
|----------------------|
|----------------------|
|----------------------|
|-5--------------------|

|----4-----------------|
|------2-h-0-----------|
|----------------------|
|---------------0-0---5|
|---------------0-0---5|
|-5-------------0-0---5|
             
Suggest correction new What's this?
You can suggest a correction to this tab. Community and Mods will review your correction and vote to approve or reject it.
comments
We did not receive enough feedback on this tab! Please rate:
print report bad tab
1 2 3 4 5
guest
You may want to rate the tab now too:
select rating
Please do not post tabs as comments. Select "correction" instead!