Oops, an error
Loading. Please wait.

Im In Love With A Stripper Tab

version 3
version 3

Whole song

12,360 views 18 this week
2 commentsread comments
1 2 3 4 5
accurate
x 7
add to favorites
launch autoscroll
font size
0
reset
how to read this tab
guitar tuner
Tab Pro tools
  • play this tab
  • loop segment
  • change instrument
  • show fretboard
  • metronome
Autoscroll
slow
fast
+/-
esc
set tempo
stop
Part 1
e|--------------------------------------------------------------------------|
B|--------------------------------------------------------------------------|
G|--------------------------------------------------------------------------|
D|-------6/8-----------------------6/8--------------------------------------|
A|--4/6--------8/10-----------3/5-------8/10--------------------------------|
E|------------------8/10----------------------------------------------------|

Part 2
e|-----6--10--8--6--10--8--6--10--8--6---------6--10--8--6--10--8--(6)------|
B|--8---------------------------------------8-------------------------------|
G|--------------------------------------------------------------------------|
D|--------------------------------------------------------------------------|
A|--------------------------------------------------------------------------|
E|--------------------------------------------------------------------------|
comments
print report bad tab
2 comments total.
0 reply
Shade8x3 wrote on September 14 2006, 03:59 pm

right notes for the second part but its in the wrong octave it should be one octave higher:

E|---18-22-20-18-22-20-18-22-20-18
B|-20-----------------------------

most electric guitars have up to 21 frets and acoustics have even less- so you can play it if you have the right one- my ibanez grg170dx has 24 frets and i bought it for around 230 with acessories

0 reply
6_months_newbie wrote on January 25 2010, 12:41 pm

oh your cool mr. ibanez grg170dx......
my gibson doesnt have that many frets :(
good tab

I want to post or [tab]
guest
You may want to rate the tab now too:
select rating
Please do not post tabs as comments. Select "correction" instead!