Oops, an error
Loading. Please wait.

30 Minutes Bass Tab

version 1
version 1

Whole song

  • Bass tab for 30 minutes by t.a.r.u.

Interactive

13 views 3 this week
no commentswrite comment
1 2 3 4 5
3 more votes to show rating
add to favorites
launch autoscroll
font size
0
reset
guitar tuner
Autoscroll
slow
fast
+/-
esc
set tempo
stop
Help us to improve Ultimate-Guitar.com Take our survey!
×
Author
Difficulty
novice
About this tab version
Bass tab for 30 minutes by t.a.r.u. Was this info helpful? Yes No
[Intro]
G|-----------------|-----------------|-3---------------|-5---------------|
D|-3---------------|-----------------|-----------------|-----------------|
A|-----------------|-4---------------|-----------------|-----------------|
E|-----------------|-----------------|-----------------|-----------------|

G|-----------------|-----------------|-3---------------|-5---------------|
D|-3---------------|-----------------|-----------------|-----------------|
A|-----------------|-4---------------|-----------------|-----------------|
E|-----------------|-----------------|-----------------|-----------------|

G|-----------------|-----------------|-3---------------|-5---------------|
D|-3---------------|-----------------|-----------------|-----------------|
A|-----------------|-4---------------|-----------------|-----------------|
E|-----------------|-----------------|-----------------|-----------------|

G|-----------------|-----------------|-3---------------|-5---------------|
D|-3---------------|-----------------|-----------------|-----------------|
A|-----------------|-4---------------|-----------------|-----------------|
E|-----------------|-----------------|-----------------|-----------------|

[Verse]
G|-----------------|-----------------|-1---------------|-1---------------|
D|-3---------------|-3---------------|-----------------|-----------------|
A|-----------------|-----------------|-----------------|-----------------|
E|-----------------|-----------------|-----------------|-----------------|

G|---------6-------|---------6-------|---------3-------|---------5-------|
D|-----------------|-----------------|-----------------|-----------------|
A|-4---------------|-4---------------|-1---------------|-3---------------|
E|-----------------|-----------------|-----------------|-----------------|

G|-----------------|-----------------|-1---------------|-1---------------|
D|-3---------------|-3---------------|-----------------|-----------------|
A|-----------------|-----------------|-----------------|-----------------|
E|-----------------|-----------------|-----------------|-----------------|

G|---------6-------|---------6-------|---------3-------|---------5-------|
D|-----------------|-----------------|-----------------|-----------------|
A|-4---------------|-4---------------|-1---------------|-3---------------|
E|-----------------|-----------------|-----------------|-----------------|

[Chorus]
G|-----------------|-----------------|-3---------------|-5---------------|
D|-3---------------|-----------------|-----------------|-----------------|
A|-----------------|-4---------------|-----------------|-----------------|
E|-----------------|-----------------|-----------------|-----------------|

G|-----------------|-----------------|-3---------------|-5---------------|
D|-3---------------|-----------------|-----------------|-----------------|
A|-----------------|-4---------------|-----------------|-----------------|
E|-----------------|-----------------|-----------------|-----------------|

G|-----------------|-----------------|-3---------------|-5---------------|
D|-3---------------|-----------------|-----------------|-----------------|
A|-----------------|-4---------------|-----------------|-----------------|
E|-----------------|-----------------|-----------------|-----------------|

G|-----------------|-----------------|-3---------------|-5---------------|
D|-3---------------|-----------------|-----------------|-----------------|
A|-----------------|-4---------------|-----------------|-----------------|
E|-----------------|-----------------|-----------------|-----------------|

[Interlude]
G|-----------------|-----------------|-3---------------|-5---------------|
D|-3---------------|-----------------|-----------------|-----------------|
A|-----------------|-4---------------|-----------------|-----------------|
E|-----------------|-----------------|-----------------|-----------------|

G|-----------------|-----------------|-3---------------|-5---------------|
D|-3---------------|-----------------|-----------------|-----------------|
A|-----------------|-4---------------|-----------------|-----------------|
E|-----------------|-----------------|-----------------|-----------------|

G|-----------------|-----------------|-3---------------|-5---------------|
D|-3---------------|-----------------|-----------------|-----------------|
A|-----------------|-4---------------|-----------------|-----------------|
E|-----------------|-----------------|-----------------|-----------------|

G|-----------------|-----------------|-3---------------|-5---------------|
D|-3---------------|-----------------|-----------------|-----------------|
A|-----------------|-4---------------|-----------------|-----------------|
E|-----------------|-----------------|-----------------|-----------------|

[Verse]
G|-----------------|-----------------|-----------------|-----------------|
D|-----------------|-----------------|-----------------|-----------------|
A|-----------------|-----------------|-----------------|-----------------|
E|-----------------|-----------------|-----------------|-----------------|

G|-----------------|-----------------|-----------------|---------5-------|
D|-----------------|-----------------|-----------------|-----------------|
A|-----------------|-----------------|-----------------|-3---------------|
E|-----------------|-----------------|-----------------|-----------------|

G|-----------------|-----------------|-1---------------|-1---------------|
D|-3---------------|-3---------------|-----------------|-----------------|
A|-----------------|-----------------|-----------------|-----------------|
E|-----------------|-----------------|-----------------|-----------------|

G|---------6-------|---------6-------|---------3-------|---------5-------|
D|-----------------|-----------------|-----------------|-----------------|
A|-4---------------|-4---------------|-1---------------|-3---------------|
E|-----------------|-----------------|-----------------|-----------------|

[Chorus]
G|-----------------|-----------------|-3---------------|-5---------------|
D|-3---------------|-----------------|-----------------|-----------------|
A|-----------------|-4---------------|-----------------|-----------------|
E|-----------------|-----------------|-----------------|-----------------|

G|-----------------|-----------------|-3---------------|-5---------------|
D|-3---------------|-----------------|-----------------|-----------------|
A|-----------------|-4---------------|-----------------|-----------------|
E|-----------------|-----------------|-----------------|-----------------|

G|-----------------|-----------------|-3---------------|-5---------------|
D|-3---------------|-----------------|-----------------|-----------------|
A|-----------------|-4---------------|-----------------|-----------------|
E|-----------------|-----------------|-----------------|-----------------|

G|-----------------|-----------------|-3---------------|-5---------------|
D|-3---------------|-----------------|-----------------|-----------------|
A|-----------------|-4---------------|-----------------|-----------------|
E|-----------------|-----------------|-----------------|-----------------|

[Outro]
G|-----------------|-----------------|-----------------|-----------------|
D|-----------------|-----------------|-----------------|-----------------|
A|-----------------|-----------------|-----------------|-----------------|
E|-----------------|-----------------|-----------------|-----------------|

G|-----------------|-----------------|-----------------|-----------------|
D|-----------------|-----------------|-----------------|-----------------|
A|-----------------|-----------------|-----------------|-----------------|
E|-----------------|-----------------|-----------------|-----------------|
Suggest correction
Give kudos to tab author, rate the tab!
1 2 3 4 5
comments
print report bad tab
guest
You may want to rate the tab now too:
select rating
Wanna post a correction for this tab? Suggest correction