Oops, an error
Loading. Please wait.

Clowns Can You See Me Now Bass Tab

version 1
version 1

Whole song

  • English version of Clowns by t.A.T.u.

Interactive

4 views 1 this week
no commentswrite comment
1 2 3 4 5
3 more votes to show rating
add to favorites
launch autoscroll
font size
0
reset
guitar tuner
Autoscroll
slow
fast
+/-
esc
set tempo
stop
Help us to improve Ultimate-Guitar.com Take our survey!
×
Author
Difficulty
novice
About this tab version
English version of Clowns by t.A.T.u. Was this info helpful? Yes No
[Intro]
G|-----------------|-----------------|-----8-----8-----|-----------------|
D|-----10----10----|-----------------|-----------------|-----------------|
A|-----------------|-----------------|-6-------6-----6-|-----------------|
E|-8-------8-----8-|-----------------|-----------------|-----------------|

G|-----------------|-----------------|-----8-----8-----|-----------------|
D|-----10----10----|-----------------|-----------------|-----------------|
A|-----------------|-----------------|-6-------6-----6-|-----------------|
E|-8-------8-----8-|-----------------|-----------------|-----------------|

[Verse]
G|-----------------|-----------------|-----------------|-----------------|
D|-----------------|-----------------|-----------------|-----------------|
A|-----------------|-----------------|-----------------|---------3-------|
E|-----------------|-----------------|-----------------|-----------------|

G|-----------------|-----------------|-----------------|-----------------|
D|-----------------|-----------------|-----------------|-----10----10----|
A|-----------------|-----------------|-----------------|-----------------|
E|-----------------|-----------------|-----------------|-8-------8-----8-|

[Pre-Chorus]
G|-----------------|-----10----10----|-----8-----8-----|-----7-----7-----|
D|-----10----10----|-----------------|-----------------|-----------------|
A|-----------------|-8-------8-----8-|-6-------6-----6-|-5-------5-----5-|
E|-8-------8-----8-|-----------------|-----------------|-----------------|

G|-----------------|-----10----10----|-----8-----8-----|-----7-----7-----|
D|-----10----10----|-----------------|-----------------|-----------------|
A|-----------------|-8-------8-----8-|-6-------6-----6-|-5-------5-----5-|
E|-8-------8-----8-|-----------------|-----------------|-----------------|

[Chorus]
G|-----------------|-----------------|-----------------|-----------------|
D|-----------------|-----------------|-----------------|-----------------|
A|-3---------------|-----------------|-----------------|---------3-------|
E|-----------------|-----------------|-----------------|-----------------|

G|-----------------|-----------------|-----------------|-----------------|
D|-----------------|-----------------|-----------------|-----------------|
A|-----------------|-----------------|-----------------|-----------------|
E|-----------------|-----------------|-----------------|-----------------|

G|-----------------|-----10----10----|-----8-----8-----|-----7-----7-----|
D|-----10----10----|-----------------|-----------------|-----------------|
A|-----------------|-8-------8-----8-|-6-------6-----6-|-5-------5-----5-|
E|-8-------8-----8-|-----------------|-----------------|-----------------|

G|-----------------|-----10----10----|-----8-----8-----|-----------------|
D|-----10----10----|-----------------|-----------------|-----------------|
A|-----------------|-8-------8-----8-|-6-------6-----6-|-----------------|
E|-8-------8-----8-|-----------------|-----------------|-----------------|

[Interlude]
G|-----------------|-----10----10----|-----8-----8-----|-----7-----7-----|
D|-----10----10----|-----------------|-----------------|-----------------|
A|-----------------|-8-------8-----8-|-6-------6-----6-|-5-------5-----5-|
E|-8-------8-----8-|-----------------|-----------------|-----------------|

G|-----------------|-----10----10----|-----8-----8-----|-----7-----7-----|
D|-----10----10----|-----------------|-----------------|-----------------|
A|-----------------|-8-------8-----8-|-6-------6-----6-|-5-------5-----5-|
E|-8-------8-----8-|-----------------|-----------------|-----------------|

G|-----------------|-----10----10----|-----8-----8-----|-----7-----7-----|
D|-----10----10----|-----------------|-----------------|-----------------|
A|-----------------|-8-------8-----8-|-6-------6-----6-|-5-------5-----5-|
E|-8-------8-----8-|-----------------|-----------------|-----------------|

G|-----------------|-----10----10----|-----8-----8-----|-----7-----7-----|
D|-----10----10----|-----------------|-----------------|-----------------|
A|-----------------|-8-------8-----8-|-6-------6-----6-|-5-------5-----5-|
E|-8-------8-----8-|-----------------|-----------------|-----------------|

[Verse]
G|-----------------|-----------------|-----------------|-----------------|
D|-----------------|-----------------|-1-----1-1-----1-|-----------------|
A|-----------------|-----------------|-----------------|-----------------|
E|-----------------|-----------------|-----------------|-----------------|

G|-----------------|-----------------|-----------------|-----------------|
D|-----------------|-----------------|-----------------|-----------------|
A|-3-----3-3-----3-|-----------------|-----------------|-----------------|
E|-----------------|-----------------|-----------------|-----------------|

[Pre-Chorus]
G|-----------------|-----10----10----|-----8-----8-----|-----7-----7-----|
D|-----10----10----|-----------------|-----------------|-----------------|
A|-----------------|-8-------8-----8-|-6-------6-----6-|-5-------5-----5-|
E|-8-------8-----8-|-----------------|-----------------|-----------------|

G|-----------------|-----10----10----|-----8-----8-----|-----7-----7-----|
D|-----10----10----|-----------------|-----------------|-----------------|
A|-----------------|-8-------8-----8-|-6-------6-----6-|-5-------5-----5-|
E|-8-------8-----8-|-----------------|-----------------|-----------------|

[Chorus]
G|-----------------|-----------------|-----------------|-----------------|
D|-----------------|-----------------|-----------------|-----------------|
A|-3---------------|-----------------|-----------------|---------3-------|
E|-----------------|-----------------|-----------------|-----------------|

G|-----------------|-----------------|-----------------|-----------------|
D|-----------------|-----------------|-----------------|-----------------|
A|-----------------|-----------------|-----------------|-----------------|
E|-----------------|-----------------|-----------------|-----------------|

G|-----------------|-----10----10----|-----8-----8-----|-----7-----7-----|
D|-----10----10----|-----------------|-----------------|-----------------|
A|-----------------|-8-------8-----8-|-6-------6-----6-|-5-------5-----5-|
E|-8-------8-----8-|-----------------|-----------------|-----------------|

G|-----------------|-----10----10----|-----8-----8-----|-----------------|
D|-----10----10----|-----------------|-----------------|-----------------|
A|-----------------|-8-------8-----8-|-6-------6-----6-|-----------------|
E|-8-------8-----8-|-----------------|-----------------|-----------------|

[Outro]
G|-----------------|-----10----10----|-----8-----8-----|-----7-----7-----|
D|-----10----10----|-----------------|-----------------|-----------------|
A|-----------------|-8-------8-----8-|-6-------6-----6-|-5-------5-----5-|
E|-8-------8-----8-|-----------------|-----------------|-----------------|

G|-----------------|-----10----10----|-----8-----8-----|-----7-----7-----|
D|-----10----10----|-----------------|-----------------|-----------------|
A|-----------------|-8-------8-----8-|-6-------6-----6-|-5-------5-----5-|
E|-8-------8-----8-|-----------------|-----------------|-----------------|

G|-----------------|-----10----10----|-----8-----8-----|-----7-----7-----|
D|-----10----10----|-----------------|-----------------|-----------------|
A|-----------------|-8-------8-----8-|-6-------6-----6-|-5-------5-----5-|
E|-8-------8-----8-|-----------------|-----------------|-----------------|

G|-----------------|-----------------|-----------------|-----------------|
D|-----------------|-----------------|-----------------|-----------------|
A|-----------------|-----------------|-----------------|-----------------|
E|-----------------|-----------------|-----------------|-----------------|
Suggest correction
Give kudos to tab author, rate the tab!
1 2 3 4 5
comments
print report bad tab
guest
You may want to rate the tab now too:
select rating
Wanna post a correction for this tab? Suggest correction