Oops, an error
Loading. Please wait.

Dangerous And Moving Bass Tab

version 1
version 1

Whole song

  • First Bass tab of Dangerous and Moving.

Interactive

4 views 1 this week
no commentswrite comment
1 2 3 4 5
3 more votes to show rating
add to favorites
launch autoscroll
font size
0
reset
guitar tuner
Autoscroll
slow
fast
+/-
esc
set tempo
stop
Help us to improve Ultimate-Guitar.com Take our survey!
×
Author
Difficulty
novice
About this tab version
First Bass tab of Dangerous and Moving. Was this info helpful? Yes No
[Intro]
G|---------------------------------|---------------------------------|
D|---------------------------------|---------------------------------|
A|---------------------------------|---------------------------------|
E|---------------------------------|---------------------------------|

G|---------------------------------|---------------------------------|
D|---------------------------------|---------------------------------|
A|---------------------------------|---------------------------------|
E|---------------------------------|---------------------------------|

G|---------------------------------|---------------------------------|
D|---------------------------------|---------------------------------|
A|-4-------------------------------|-3-------------------------------|
E|---------------------------------|---------------------------------|

G|---------------------------------|---------------------------------|
D|-3-3-3-3-3-3-3-3-3-3-3-3-3-3-3-3-|-6-6-6-6-6-6-6-6-6-6-6-6-6-6-6-6-|
A|---------------------------------|---------------------------------|
E|---------------------------------|---------------------------------|

G|---------------------------------|---------------------------------|
D|---------------------------------|---------------------------------|
A|-4-------------------------------|-3-------------------------------|
E|---------------------------------|---------------------------------|

G|---------------------------------|---------------------------------|
D|-3-3-3-3-3-3-3-3-3-3-3-3-3-3-3-3-|-6-6-6-6-6-6-6-6-6-6-6-6-6-6-6-6-|
A|---------------------------------|---------------------------------|
E|---------------------------------|---------------------------------|

G|---------------------------------|---------------------------------|
D|---------------------------------|---------------------------------|
A|-4-------------------------------|-3-------------------------------|
E|---------------------------------|---------------------------------|

G|---------------------------------|---------------------------------|
D|-3-3-3-3-3-3-3-3-3-3-3-3-3-3-3-3-|-6-6-6-6-6-6-6-6-6-6-6-6-6-6-6-6-|
A|---------------------------------|---------------------------------|
E|---------------------------------|---------------------------------|

G|---------------------------------|---------------------------------|
D|---------------------------------|---------------------------------|
A|-4-------------------------------|-3-------------------------------|
E|---------------------------------|---------------------------------|

G|---------------------------------|---------------------------------|
D|-3-3-3-3-3-3-3-3-3-3-3-3-3-3-3-3-|-6-6-6-6-6-6-6-6-6-6-6-6-6-6-6-6-|
A|---------------------------------|---------------------------------|
E|---------------------------------|---------------------------------|

G|---------------------------------|
D|-6-6-6-6-6-6-6-6-----------------|
A|---------------------------------|
E|---------------------------------|

[Verse]
G|---------------------------------|---------------------------------|
D|-3-----------------------3---3---|-1-----------------------1---1---|
A|---------------------------------|---------------------------------|
E|---------------------------------|---------------------------------|

G|---------------------------------|---------------------------------|
D|---------------------------------|-----------------------------1---|
A|-4-----------------------4---4---|-3-------------------------------|
E|---------------------------------|-----------------4-------3-------|

G|---------------------------------|-0-----------------------0---0---|
D|-3-----------------------3---3---|---------------------------------|
A|---------------------------------|---------------------------------|
E|---------------------------------|---------------------------------|

G|-1-----------------------1---1---|-3-----------1---0-------0-------|
D|---------------------------------|---------------------------------|
A|---------------------------------|---------------------------------|
E|---------------------------------|---------------------------------|

G|---------------------------------|-------------3---------------3---|
D|---------3-------------------3---|---------3-----------------------|
A|-----3---------------------------|-----1---------------------------|
E|-1-------------------------------|---------------------------------|

G|-3---1-------1---3-----1---------|-----------------1---0-----------|
D|---------------------------------|-------------------------3---1---|
A|-----------------------------4---|-4---3-------3-------------------|
E|---------4-----------------------|---------4-----------------------|

G|---------------------------------|-0---0----0----------------------|
D|-3-----3-----3-------------------|---------------------------------|
A|---------------------------------|---------------------------------|
E|---------------------------------|---------------------------------|

G|---------------------------------|-3---------------1---------------|
D|-6---6----6----------------------|---------------------------------|
A|---------------------------------|---------------------------------|
E|---------------------------------|---------------------------------|

G|---------------------------------|
D|---------------------------------|
A|---------------------------------|
E|---------------------------------|

[Chorus]
G|---------------------------------|---------------------------------|
D|---------------------------------|---------------------------------|
A|-4-------------------------------|-3-------------------------------|
E|---------------------------------|---------------------------------|

G|---------------------------------|---------------------------------|
D|-3-3-3-3-3-3-3-3-3-3-3-3-3-3-3-3-|-6-6-6-6-6-6-6-6-6-6-6-6-6-6-6-6-|
A|---------------------------------|---------------------------------|
E|---------------------------------|---------------------------------|

G|---------------------------------|---------------------------------|
D|---------------------------------|---------------------------------|
A|-4-------------------------------|-3-------------------------------|
E|---------------------------------|---------------------------------|

G|---------------------------------|---------------------------------|
D|-3-3-3-3-3-3-3-3-3-3-3-3-3-3-3-3-|-6-6-6-6-6-6-6-6-6-6-6-6-6-6-6-6-|
A|---------------------------------|---------------------------------|
E|---------------------------------|---------------------------------|

G|---------------------------------|---------------------------------|
D|---------------------------------|---------------------------------|
A|-4-------------------------------|-3-------------------------------|
E|---------------------------------|---------------------------------|

G|---------------------------------|---------------------------------|
D|-3-3-3-3-3-3-3-3-3-3-3-3-3-3-3-3-|-6-6-6-6-6-6-6-6-6-6-6-6-6-6-6-6-|
A|---------------------------------|---------------------------------|
E|---------------------------------|---------------------------------|

G|---------------------------------|---------------------------------|
D|---------------------------------|---------------------------------|
A|-4-------------------------------|-3-------------------------------|
E|---------------------------------|---------------------------------|

G|---------------------------------|---------------------------------|
D|-3-3-3-3-3-3-3-3-3-3-3-3-3-3-3-3-|-6-6-6-6-6-6-6-6-6-6-6-6-6-6-6-6-|
A|---------------------------------|---------------------------------|
E|---------------------------------|---------------------------------|

[Verse]
G|---------------------------------|---------------------------------|
D|-3-----------------------3---3---|-1-----------------------1---1---|
A|---------------------------------|---------------------------------|
E|---------------------------------|---------------------------------|

G|---------------------------------|---------------------------------|
D|---------------------------------|-----------------------------1---|
A|-4-----------------------4---4---|-3-------------------------------|
E|---------------------------------|-----------------4-------3-------|

G|---------------------------------|-0-----------------------0---0---|
D|-3-----------------------3---3---|---------------------------------|
A|---------------------------------|---------------------------------|
E|---------------------------------|---------------------------------|

G|-1-----------------------1---1---|-3-----------1---0-------0-------|
D|---------------------------------|---------------------------------|
A|---------------------------------|---------------------------------|
E|---------------------------------|---------------------------------|

G|---------------------------------|
D|-3-------------------------------|
A|---------------------------------|
E|---------------------------------|

[Chorus]
G|---------------------------------|---------------------------------|
D|---------------------------------|---------------------------------|
A|-4-------------------------------|-3-------------------------------|
E|---------------------------------|---------------------------------|

G|---------------------------------|---------------------------------|
D|-3-3-3-3-3-3-3-3-3-3-3-3-3-3-3-3-|-6-6-6-6-6-6-6-6-6-6-6-6-6-6-6-6-|
A|---------------------------------|---------------------------------|
E|---------------------------------|---------------------------------|

G|---------------------------------|---------------------------------|
D|---------------------------------|---------------------------------|
A|-4-------------------------------|-3-------------------------------|
E|---------------------------------|---------------------------------|

G|---------------------------------|---------------------------------|
D|-3-3-3-3-3-3-3-3-3-3-3-3-3-3-3-3-|-6-6-6-6-6-6-6-6-6-6-6-6-6-6-6-6-|
A|---------------------------------|---------------------------------|
E|---------------------------------|---------------------------------|

G|---------------------------------|---------------------------------|
D|---------------------------------|---------------------------------|
A|-4-------------------------------|-3-------------------------------|
E|---------------------------------|---------------------------------|

G|---------------------------------|---------------------------------|
D|-3-3-3-3-3-3-3-3-3-3-3-3-3-3-3-3-|-6-6-6-6-6-6-6-6-6-6-6-6-6-6-6-6-|
A|---------------------------------|---------------------------------|
E|---------------------------------|---------------------------------|

G|---------------------------------|---------------------------------|
D|---------------------------------|---------------------------------|
A|-4-------------------------------|-3-------------------------------|
E|---------------------------------|---------------------------------|

G|---------------------------------|---------------------------------|
D|-3-3-3-3-3-3-3-3-3-3-3-3-3-3-3-3-|-6-6-6-6-6-6-6-6-6-6-6-6-6-6-6-6-|
A|---------------------------------|---------------------------------|
E|---------------------------------|---------------------------------|

G|---------------------------------|
D|---------------------------------|
A|---------------------------------|
E|---------------------------------|

[Interlude]
G|---------------------------------|---------------------------------|
D|-3-------3---3---------------3---|-3-----3-----3---1---------------|
A|---------------------------------|---------------------------------|
E|---------------------------------|---------------------------------|

G|---------------------------------|---------------------------------|
D|-3-------3---3---------------3---|-3-----3-----3---1---------------|
A|---------------------------------|---------------------------------|
E|---------------------------------|---------------------------------|

G|---------------------------------|---------------------------------|
D|-3-------3---3---------------3---|-3-----3-----3---1---------------|
A|---------------------------------|---------------------------------|
E|---------------------------------|---------------------------------|

G|---------------------------------|---------------------------------|
D|-3-------3---3---------------3---|-3-----3-----3---1---------------|
A|---------------------------------|---------------------------------|
E|---------------------------------|---------------------------------|

G|---------------------------------|---------------------------------|
D|-3-------3---3---------------3---|-3-----3-----3---1---------------|
A|---------------------------------|---------------------------------|
E|---------------------------------|---------------------------------|

G|---------------------------------|---------------------------------|
D|-3-------3---3---------------3---|-3-----3-----3---1---------------|
A|---------------------------------|---------------------------------|
E|---------------------------------|---------------------------------|

G|---------------------------------|---------------------------------|
D|-3-------3---3---------------3---|-3-----3-----3---1---------------|
A|---------------------------------|---------------------------------|
E|---------------------------------|---------------------------------|

G|---------------------------------|---------------------------------|
D|-3-------3---3---------------3---|-3-----3-----3---1---------------|
A|---------------------------------|---------------------------------|
E|---------------------------------|---------------------------------|

[Chorus]
G|---------------------------------|---------------------------------|
D|---------------------------------|---------------------------------|
A|-4-------------------------------|-3-------------------------------|
E|---------------------------------|---------------------------------|

G|---------------------------------|---------------------------------|
D|-3-3-3-3-3-3-3-3-3-3-3-3-3-3-3-3-|-6-6-6-6-6-6-6-6-6-6-6-6-6-6-6-6-|
A|---------------------------------|---------------------------------|
E|---------------------------------|---------------------------------|

G|---------------------------------|---------------------------------|
D|---------------------------------|---------------------------------|
A|-4-------------------------------|-3-------------------------------|
E|---------------------------------|---------------------------------|

G|---------------------------------|---------------------------------|
D|-3-3-3-3-3-3-3-3-3-3-3-3-3-3-3-3-|-6-6-6-6-6-6-6-6-6-6-6-6-6-6-6-6-|
A|---------------------------------|---------------------------------|
E|---------------------------------|---------------------------------|

G|---------------------------------|---------------------------------|
D|---------------------------------|---------------------------------|
A|-4-------------------------------|-3-------------------------------|
E|---------------------------------|---------------------------------|

G|---------------------------------|---------------------------------|
D|-3-3-3-3-3-3-3-3-3-3-3-3-3-3-3-3-|-6-6-6-6-6-6-6-6-6-6-6-6-6-6-6-6-|
A|---------------------------------|---------------------------------|
E|---------------------------------|---------------------------------|

G|---------------------------------|---------------------------------|
D|---------------------------------|---------------------------------|
A|-4-------------------------------|-3-------------------------------|
E|---------------------------------|---------------------------------|

G|---------------------------------|---------------------------------|
D|-3-3-3-3-3-3-3-3-3-3-3-3-3-3-3-3-|-6-6-6-6-6-6-6-6-6-6-6-6-6-6-6-6-|
A|---------------------------------|---------------------------------|
E|---------------------------------|---------------------------------|

G|---------------------------------|---------------------------------|
D|---------------------------------|---------------------------------|
A|-4-------------------------------|-3-------------------------------|
E|---------------------------------|---------------------------------|

G|---------------------------------|---------------------------------|
D|-3-3-3-3-3-3-3-3-3-3-3-3-3-3-3-3-|-6-6-6-6-6-6-6-6-6-6-6-6-6-6-6-6-|
A|---------------------------------|---------------------------------|
E|---------------------------------|---------------------------------|

G|---------------------------------|---------------------------------|
D|---------------------------------|---------------------------------|
A|-4-------------------------------|-3-------------------------------|
E|---------------------------------|---------------------------------|

G|---------------------------------|---------------------------------|
D|-3-3-3-3-3-3-3-3-3-3-3-3-3-3-3-3-|-6-6-6-6-6-6-6-6-6-6-6-6-6-6-6-6-|
A|---------------------------------|---------------------------------|
E|---------------------------------|---------------------------------|

G|---------------------------------|---------------------------------|
D|-6-6-6-6-6-6-6-6-6-6-6-6-6-6-6-6-|-6-------------------------------|
A|---------------------------------|---------------------------------|
E|---------------------------------|---------------------------------|

G|---------------------------------|-1-------------------------------|
D|-3-------------------------------|---------------------------------|
A|---------------------------------|---------------------------------|
E|---------------------------------|---------------------------------|

G|---------------------------------|---------------------------------|
D|---------------------------------|---------------------------------|
A|-4-------------------------------|-3-------------------------------|
E|---------------------------------|---------------------------------|

G|---------------------------------|-1-------------------------------|
D|-3-------------------------------|---------------------------------|
A|---------------------------------|---------------------------------|
E|---------------------------------|---------------------------------|
Suggest correction
Give kudos to tab author, rate the tab!
1 2 3 4 5
comments
print report bad tab
guest
You may want to rate the tab now too:
select rating
Wanna post a correction for this tab? Suggest correction