Oops, an error
Loading. Please wait.

Stars Bass Tab

version 1
version 1

Whole song

  • First Bass version of Stars.

Interactive

7 views 3 this week
no commentswrite comment
1 2 3 4 5
3 more votes to show rating
add to favorites
launch autoscroll
font size
0
reset
guitar tuner
Autoscroll
slow
fast
+/-
esc
set tempo
stop
Help us to improve Ultimate-Guitar.com Take our survey!
×
Author
Difficulty
Tuning
novice
D# G# C# F# A# D#
About this tab version
First Bass version of Stars. Was this info helpful? Yes No
[Chorus][0:44]
F#|---------------------------12----|---------------------7-5---------|
C#|---------------------------------|-----------------------------4---|
F#|-------------------------------7-|---------------------------------|
D#|-8-----8---------------------8---|-8-----8-------------------------|

F#|---------------------------------|---------------------------------|
C#|---------------------------------|---------------------------------|
F#|---------------------------------|---------------------------------|
D#|-0-----0-------------------------|-0-----0-------0-----0-------7---|

F#|---------------------------12----|---------------------7-5---------|
C#|---------------------------------|-----------------------------4---|
F#|-------------------------------7-|---------------------------------|
D#|-8-----8---------------------8---|-8-----8-------------------------|

F#|---------------------------------|---------------------------------|
C#|---------------------------------|---------------------------------|
F#|---------------------------------|---------------------------------|
D#|-0-----0-------------------------|---------------------------------|

[Verse]
F#|---------------------------12----|---------------------7-5---------|
C#|---------------------------------|-----------------------------4---|
F#|-------------------------------7-|---------------------------------|
D#|-8-----8---------------------8---|-8-----8-------------------------|

F#|---------------------------------|---------------------------------|
C#|---------------------------------|---------------------------------|
F#|---------------------------------|---------------------------------|
D#|-0-----0-------------------------|-0-----0-------0-----0-------7---|

F#|---------------------------12----|---------------------7-5---------|
C#|---------------------------------|-----------------------------4---|
F#|-------------------------------7-|---------------------------------|
D#|-8-----8---------------------8---|-8-----8-------------------------|

F#|---------------------------------|---------------------------------|
C#|---------------------------------|---------------------------------|
F#|---------------------------------|---------------------------------|
D#|-0-----0-------------------------|-0-----0-------0-----0-------7---|

F#|---------------------------12----|---------------------7-5---------|
C#|---------------------------------|-----------------------------4---|
F#|-------------------------------7-|---------------------------------|
D#|-8-----8---------------------8---|-8-----8-------------------------|

F#|---------------------------------|---------------------------------|
C#|---------------------------------|---------------------------------|
F#|---------------------------------|---------------------------------|
D#|-0-----0-------------------------|-0-----0-------0-----0-------7---|

F#|---------------------------12----|---------------------7-5---------|
C#|---------------------------------|-----------------------------4---|
F#|-------------------------------7-|---------------------------------|
D#|-8-----8---------------------8---|-8-----8-------------------------|

F#|---------------------------------|---------------------------------|
C#|---------------------------------|---------------------------------|
F#|---------------------------------|---------------------------------|
D#|-0-----0-------------------------|---------------------------------|

[Chorus]
F#|---------------------------12----|---------------------7-5---------|
C#|---------------------------------|-----------------------------4---|
F#|-------------------------------7-|---------------------------------|
D#|-8-----8---------------------8---|-8-----8-------------------------|

F#|---------------------------------|---------------------------------|
C#|---------------------------------|---------------------------------|
F#|---------------------------------|---------------------------------|
D#|-0-----0-------------------------|-0-----0-------0-----0-------7---|

F#|---------------------------12----|---------------------7-5---------|
C#|---------------------------------|-----------------------------4---|
F#|-------------------------------7-|---------------------------------|
D#|-8-----8---------------------8---|-8-----8-------------------------|

F#|---------------------------------|---------------------------------|
C#|---------------------------------|---------------------------------|
F#|---------------------------------|---------------------------------|
D#|-0-----0-------------------------|-0-----0-------0-----0-------7---|

F#|---------------------------12----|---------------------7-5---------|
C#|---------------------------------|-----------------------------4---|
F#|-------------------------------7-|---------------------------------|
D#|-8-----8---------------------8---|-8-----8-------------------------|

F#|---------------------------------|---------------------------------|
C#|---------------------------------|---------------------------------|
F#|---------------------------------|---------------------------------|
D#|-0-----0-------------------------|-0-----0-------0-----0-------7---|

F#|---------------------------12----|---------------------7-5---------|
C#|---------------------------------|-----------------------------4---|
F#|-------------------------------7-|---------------------------------|
D#|-8-----8---------------------8---|-8-----8-------------------------|

F#|---------------------------------|---------------------------------|
C#|---------------------------------|---------------------------------|
F#|---------------------------------|---------------------------------|
D#|-0-----0-------------------------|---------------------------------|

[Verse]
F#|---------------------------12----|---------------------7-5---------|
C#|---------------------------------|-----------------------------4---|
F#|-------------------------------7-|---------------------------------|
D#|-8-----8---------------------8---|-8-----8-------------------------|

F#|---------------------------------|---------------------------------|
C#|---------------------------------|---------------------------------|
F#|---------------------------------|---------------------------------|
D#|-0-----0-------------------------|-0-----0-------0-----0-------7---|

F#|---------------------------12----|---------------------7-5---------|
C#|---------------------------------|-----------------------------4---|
F#|-------------------------------7-|---------------------------------|
D#|-8-----8---------------------8---|-8-----8-------------------------|

F#|---------------------------------|---------------------------------|
C#|---------------------------------|---------------------------------|
F#|---------------------------------|---------------------------------|
D#|-0-----0-------------------------|---------------------------------|

[Interlude]
F#|---------------------------------|---------------------------------|
C#|---------------------------------|---------------------------------|
F#|---------------------------------|---------------------------------|
D#|---------------------------------|---------------------------------|

F#|---------------------------------|---------------------------------|
C#|---------------------------------|---------------------------------|
F#|---------------------------------|---------------------------------|
D#|---------------------------------|---------------------------------|

F#|---------------------------------|---------------------------------|
C#|---------------------------------|---------------------------------|
F#|---------------------------------|---------------------------------|
D#|---------------------------------|---------------------------------|

F#|---------------------------------|---------------------------------|
C#|---------------------------------|---------------------------------|
F#|---------------------------------|---------------------------------|
D#|---------------------------------|---------------------------------|

[Chorus]
F#|---------------------------12----|---------------------7-5---------|
C#|---------------------------------|-----------------------------4---|
F#|-------------------------------7-|---------------------------------|
D#|-8-----8---------------------8---|-8-----8-------------------------|

F#|---------------------------------|---------------------------------|
C#|---------------------------------|---------------------------------|
F#|---------------------------------|---------------------------------|
D#|-0-----0-------------------------|-0-----0-------0-----0-------7---|

F#|---------------------------12----|---------------------7-5---------|
C#|---------------------------------|-----------------------------4---|
F#|-------------------------------7-|---------------------------------|
D#|-8-----8---------------------8---|-8-----8-------------------------|

F#|---------------------------------|---------------------------------|
C#|---------------------------------|---------------------------------|
F#|---------------------------------|---------------------------------|
D#|-0-----0-------------------------|-0-----0-------0-----0-------7---|

F#|---------------------------12----|---------------------7-5---------|
C#|---------------------------------|-----------------------------4---|
F#|-------------------------------7-|---------------------------------|
D#|-8-----8---------------------8---|-8-----8-------------------------|

F#|---------------------------------|---------------------------------|
C#|---------------------------------|---------------------------------|
F#|---------------------------------|---------------------------------|
D#|-0-----0-------------------------|-0-----0-------0-----0-------7---|

F#|---------------------------12----|---------------------7-5---------|
C#|---------------------------------|-----------------------------4---|
F#|-------------------------------7-|---------------------------------|
D#|-8-----8---------------------8---|-8-----8-------------------------|

F#|---------------------------------|---------------------------------|
C#|---------------------------------|---------------------------------|
F#|---------------------------------|---------------------------------|
D#|-0-----0-------------------------|---------------------------------|
Suggest correction
Give kudos to tab author, rate the tab!
1 2 3 4 5
comments
print report bad tab
guest
You may want to rate the tab now too:
select rating
Wanna post a correction for this tab? Suggest correction