Oops, an error
Loading. Please wait.

Stars Tab

version 1
version 1

Whole song

  • Acoustic guitar parts of the track.

Interactive

4 views 1 this week
no commentswrite comment
1 2 3 4 5
3 more votes to show rating
add to favorites
launch autoscroll
font size
0
reset
how to read this tab
guitar tuner
Autoscroll
slow
fast
+/-
esc
set tempo
stop
Help us to improve Ultimate-Guitar.com Take our survey!
×
Author
Difficulty
novice
About this tab version
Acoustic guitar parts of the track. Was this info helpful? Yes No
[Intro]
e|-----------------|-----------------|-----------------|-----------------|
B|-----------------|-----------------|-----------------|-----------------|
G|-----------------|-----------------|-----------------|-----------------|
D|-----------------|-----------------|-----------------|-----------------|
A|-----------------|-----------------|-----------------|-----------------|
E|-----------------|-----------------|-----------------|-----------------|×6

[Verse]
e|-----------------|-----------------|-----------------|-----------------|
B|-----------------|-----------------|-----------------|-----------------|
G|-----------------|-----------------|-----------------|-----------------|
D|-----------------|-----------------|-----------------|-----------------|
A|-----------------|-----------------|-----------------|-----------------|
E|-----------------|-----------------|-----------------|-----------------|×4

[Chorus]
e|-----------------|-----------------|-----2-----------|-----2-----------|
B|-0---2-----------|-0---2-----------|-----------------|-----------------|
G|-----------------|-----------------|---3-------------|---3-------------|
D|---4-------------|---4-------------|-1---------------|-1---------------|
A|-----------------|-----------------|-----------------|-----------------|
E|-----------------|-----------------|-----------------|-----------------|

e|-----7-----------|-----9-----------|-----4-4-----6-6-|-------6---------|
B|-----------------|-----------------|-----6-6-----7-7-|-----9-----7-----|
G|---8-------------|---10------------|-----------------|-----------------|
D|-----------------|-8---------------|---8-------------|---8-------------|
A|-9---------------|-----------------|-6---------------|-6---------------|
E|-----------------|-----------------|-----------------|-----------------|

e|-----------------|-----------------|-----2-----------|-----2-----------|
B|-0---2-----------|-0---2-----------|-----------------|-----------------|
G|-----------------|-----------------|---3-------------|---3-------------|
D|---4-------------|---4-------------|-1---------------|-1---------------|
A|-----------------|-----------------|-----------------|-----------------|
E|-----------------|-----------------|-----------------|-----------------|

e|-----7-----------|-----9-----------|-----4-4-----6-6-|-------6---------|
B|-----------------|-----------------|-----6-6-----7-7-|-----9-----7-----|
G|---8-------------|---10------------|-----------------|-----------------|
D|-----------------|-8---------------|---8-------------|---8-------------|
A|-9---------------|-----------------|-6---------------|-6---------------|
E|-----------------|-----------------|-----------------|-----------------|

[Verse]
e|-----------------|-----------------|-----------------|-----------------|
B|-----------------|-----------------|-----------------|-----------------|
G|-----------------|-----------------|-----------------|-----------------|
D|-----------------|-----------------|-----------------|-----------------|
A|-----------------|-----------------|-----------------|-----------------|
E|-----------------|-----------------|-----------------|-----------------|×2

[Interlude]
e|-----------------|-----------------|-----------------|-----------------|
B|-----------------|-----------------|-----------------|-----------------|
G|-----------------|-----------------|-----------------|-----------------|
D|-----------------|-----------------|-----------------|-----------------|
A|-----------------|-----------------|-----------------|-----------------|
E|-----------------|-----------------|-----------------|-----------------|×2

[Chorus]
e|-----------------|-----------------|-----2-----------|-----2-----------|
B|-0---2-----------|-0---2-----------|-----------------|-----------------|
G|-----------------|-----------------|---3-------------|---3-------------|
D|---4-------------|---4-------------|-1---------------|-1---------------|
A|-----------------|-----------------|-----------------|-----------------|
E|-----------------|-----------------|-----------------|-----------------|

e|-----7-----------|-----9-----------|-----4-4-----6-6-|-------6---------|
B|-----------------|-----------------|-----6-6-----7-7-|-----9-----7-----|
G|---8-------------|---10------------|-----------------|-----------------|
D|-----------------|-8---------------|---8-------------|---8-------------|
A|-9---------------|-----------------|-6---------------|-6---------------|
E|-----------------|-----------------|-----------------|-----------------|

e|-----------------|-----------------|-----2-----------|-----2-----------|
B|-0---2-----------|-0---2-----------|-----------------|-----------------|
G|-----------------|-----------------|---3-------------|---3-------------|
D|---4-------------|---4-------------|-1---------------|-1---------------|
A|-----------------|-----------------|-----------------|-----------------|
E|-----------------|-----------------|-----------------|-----------------|

e|-----7-----------|-----9-----------|-----4-4-----6-6-|-------6---------|
B|-----------------|-----------------|-----6-6-----7-7-|-----9-----7-----|
G|---8-------------|---10------------|-----------------|-----------------|
D|-----------------|-8---------------|---8-------------|---8-------------|
A|-9---------------|-----------------|-6---------------|-6---------------|
E|-----------------|-----------------|-----------------|-----------------|
Suggest correction
Give kudos to tab author, rate the tab!
1 2 3 4 5
comments
print report bad tab
guest
You may want to rate the tab now too:
select rating
Wanna post a correction for this tab? Suggest correction