Oops, an error
Loading. Please wait.

You And I Bass

version 1
version 1

Whole song

  • Bass tab of You And I by T.a.t.u.

Interactive

17 views 1 this week
no commentswrite comment
1 2 3 4 5
3 more votes to show rating
add to favorites
launch autoscroll
font size
0
reset
guitar tuner
×
Best way to learn
"You And I"
Autoscroll
slow
fast
+/-
esc
set tempo
stop
Author
Difficulty
Tuning
  follow
novice
C G C F
About this tab version
Bass tab of You And I by T.a.t.u. Was this info helpful? Yes No
[Intro]
F|---------------------------------|---------------------------------|
C|---------------------------------|-0-0-0-0-0-0-0-0-0-0-0-0-0-0-----|
G|---------------------------------|---------------------------------|
C|-5-5-5-5-5-5-5-5-5-5-5-5-5-5-5-5-|-----------------------------0-0-|

F|---------------------------------|---------------------------------|
C|---------------------------------|-1-1-1-1-1-1-1-1-3-3-3-3-3-3-3-3-|
G|-3-3-3-3-3-3-3-3-3-3-3-3-3-3-3-3-|---------------------------------|
C|---------------------------------|---------------------------------|

F|---------------------------------|---------------------------------|
C|---------------------------------|-0-0-0-0-0-0-0-0-0-0-0-0-0-0-----|
G|---------------------------------|---------------------------------|
C|-5-5-5-5-5-5-5-5-5-5-5-5-5-5-5-5-|-----------------------------0-0-|

F|---------------------------------|---------------------------------|
C|---------------------------------|-1-1-1-1-1-1-1-1-3-3-3-3-3-3-3-3-|
G|-3-3-3-3-3-3-3-3-3-3-3-3-3-3-3-3-|---------------------------------|
C|---------------------------------|---------------------------------|

[Verse]
F|---------------------------------|---------------------------------|
C|---------------------------------|---------------------------------|
G|---------------------------------|---------------------------------|
C|---------------------------------|---------------------------------|

F|---------------------------------|---------------------------------|
C|---------------------------------|---------------------------------|
G|---------------------------------|---------------------------------|
C|---------------------------------|---------------------------------|

F|---------------------------------|---------------------------------|
C|---------------------------------|---------------------------------|
G|---------------------------------|---------------------------------|
C|---------------------------------|---------------------------------|

F|---------------------------------|---------------------------------|
C|---------------------------------|---------------------------------|
G|---------------------------------|---------------------------------|
C|---------------------------------|---------------------------------|

F|---------------------------------|---------------------------------|
C|---------------------------------|---------------------------------|
G|---------------------------------|---------------------------------|
C|---------------------------------|---------------------------------|

F|---------------------------------|---------------------------------|
C|---------------------------------|---------------------------------|
G|---------------------------------|---------------------------------|
C|---------------------------------|---------------------------------|

F|---------------------------------|---------------------------------|
C|---------------------------------|---------------------------------|
G|---------------------------------|---------------------------------|
C|---------------------------------|---------------------------------|

F|---------------------------------|---------------------------------|
C|---------------------------------|---------------------------------|
G|---------------------------------|---------------------------------|
C|---------------------------------|---------------------------------|

[Chorus]
F|---------------------------------|---------------------------------|
C|---------------------------------|-0-0-0-0-0-0-0-0-0-0-0-0-0-0-----|
G|---------------------------------|---------------------------------|
C|-5-5-5-5-5-5-5-5-5-5-5-5-5-5-5-5-|-----------------------------0-0-|

F|---------------------------------|---------------------------------|
C|---------------------------------|-1-1-1-1-1-1-1-1-3-3-3-3-3-3-3-3-|
G|-3-3-3-3-3-3-3-3-3-3-3-3-3-3-3-3-|---------------------------------|
C|---------------------------------|---------------------------------|

F|---------------------------------|---------------------------------|
C|---------------------------------|-0-0-0-0-0-0-0-0-0-0-0-0-0-0-----|
G|---------------------------------|---------------------------------|
C|-5-5-5-5-5-5-5-5-5-5-5-5-5-5-5-5-|-----------------------------0-0-|

F|---------------------------------|---------------------------------|
C|---------------------------------|-1-1-1-1-1-1-1-1-3-3-3-3-3-3-3-3-|
G|-3-3-3-3-3-3-3-3-3-3-3-3-3-3-3-3-|---------------------------------|
C|---------------------------------|---------------------------------|

[Verse]
F|---------------------------------|---------------------------------|
C|---------------------------------|---------------------------------|
G|---------------------------------|---------------------------------|
C|---------------------------------|---------------------------------|

F|---------------------------------|---------------------------------|
C|---------------------------------|---------------------------------|
G|---------------------------------|---------------------------------|
C|---------------------------------|---------------------------------|

F|---------------------------------|---------------------------------|
C|---------------------------------|---------------------------------|
G|---------------------------------|---------------------------------|
C|---------------------------------|---------------------------------|

F|---------------------------------|---------------------------------|
C|---------------------------------|---------------------------------|
G|---------------------------------|---------------------------------|
C|---------------------------------|---------------------------------|

F|---------------------------------|---------------------------------|
C|---------------------------------|---------------------------------|
G|---------------------------------|---------------------------------|
C|---------------------------------|---------------------------------|

F|---------------------------------|---------------------------------|
C|---------------------------------|---------------------------------|
G|---------------------------------|---------------------------------|
C|---------------------------------|---------------------------------|

F|---------------------------------|---------------------------------|
C|---------------------------------|---------------------------------|
G|---------------------------------|---------------------------------|
C|---------------------------------|---------------------------------|

F|---------------------------------|---------------------------------|
C|---------------------------------|---------------------------------|
G|---------------------------------|---------------------------------|
C|---------------------------------|---------------------------------|

[Chorus]
F|---------------------------------|---------------------------------|
C|---------------------------------|-0-0-0-0-0-0-0-0-0-0-0-0-0-0-----|
G|---------------------------------|---------------------------------|
C|-5-5-5-5-5-5-5-5-5-5-5-5-5-5-5-5-|-----------------------------0-0-|

F|---------------------------------|---------------------------------|
C|---------------------------------|-1-1-1-1-1-1-1-1-3-3-3-3-3-3-3-3-|
G|-3-3-3-3-3-3-3-3-3-3-3-3-3-3-3-3-|---------------------------------|
C|---------------------------------|---------------------------------|

F|---------------------------------|---------------------------------|
C|---------------------------------|-0-0-0-0-0-0-0-0-0-0-0-0-0-0-----|
G|---------------------------------|---------------------------------|
C|-5-5-5-5-5-5-5-5-5-5-5-5-5-5-5-5-|-----------------------------0-0-|

F|---------------------------------|---------------------------------|
C|---------------------------------|-1-1-1-1-1-1-1-1-3-3-3-3-3-3-3-3-|
G|-3-3-3-3-3-3-3-3-3-3-3-3-3-3-3-3-|---------------------------------|
C|---------------------------------|---------------------------------|

F|---------------------------------|---------------------------------|
C|---------------------------------|-0-0-0-0-0-0-0-0-0-0-0-0-0-0-----|
G|---------------------------------|---------------------------------|
C|-5-5-5-5-5-5-5-5-5-5-5-5-5-5-5-5-|-----------------------------0-0-|

F|---------------------------------|---------------------------------|
C|---------------------------------|-1-1-1-1-1-1-1-1-3-3-3-3-3-3-3-3-|
G|-3-3-3-3-3-3-3-3-3-3-3-3-3-3-3-3-|---------------------------------|
C|---------------------------------|---------------------------------|

F|---------------------------------|---------------------------------|
C|---------------------------------|-0-0-0-0-0-0-0-0-0-0-0-0-0-0-----|
G|---------------------------------|---------------------------------|
C|-5-5-5-5-5-5-5-5-5-5-5-5-5-5-5-5-|-----------------------------0-0-|

F|---------------------------------|---------------------------------|
C|---------------------------------|-1-1-1-1-1-1-1-1-3-3-3-3-3-3-3-3-|
G|-3-3-3-3-3-3-3-3-3-3-3-3-3-3-3-3-|---------------------------------|
C|---------------------------------|---------------------------------|
Suggest correction
Give kudos to tab author, rate the tab!
1 2 3 4 5
comments
print report bad tab
guest
You may want to rate the tab now too:
select rating
Wanna post a correction for this tab? Suggest correction