Oops, an error
Loading. Please wait.

Fue Amor Tab

by T Con T
77 views 1 this week
no commentswrite comment
1 2 3 4 5
3 more votes to show rating
add to favorites
launch autoscroll
font size
0
reset
how to read this tab
guitar tuner
×
Best way to learn
"Fue Amor"
Autoscroll
slow
fast
+/-
esc
set tempo
stop
SOL*
--7-7-7-7-8-7-5-7-7-7-7-8-7-5-7-7-7-7--|
---8-8-8----3----8-8-8----3----8-8-8---|
---------------------------------------|
--5-------------5-------------5--------|
--------5-------------5----------------|
---------------------------------------|

SOL SOL#        LA
                  SI
Es tan vacio y no se que hacer
      DO                  SOL SOL# LA
y no puedo acostumbrarme más
                        SI
siento que el frio me quema la piel
      DO
y no puedo acostumbrarme
              RE
acostumbrarme mas
      SOL
y olvidar por algun tiempo la cruel posicion
        SI
de encontrarte en cada espacio cada situacion
      DO
recordanto esos instantes cuando era feliz
       RE
se muy bien que es imposible pero estoy aquí
y lo siento si invadí alguna vez tus sueños
vos estás en los mios en cada momento
quiero verte acariciarte tan solo un adios
los segundos en la vida siempre vienen bien
       SI        LA RE
vos sabes que si
     SOL
amor
   SI
vos sabes que tuviste la culpa también
        RE
y no entiendo como vuelcas la mirada
         MI   
y dices adios
      LA
me conoces tu muy bien
           RE
se que no sé perdeder
           SOL
tu das vueltas por el mundo
        MI
sin saber que hacer
       LA            RE
fue amor cada momento
      LA  SOL
fue amor

sabes que le temo a la soledad
con las hojas que se lleva el viento
tu y yo solos en la inmensidad
dejame ser tu pasado, tu presente y más

y te veo a cada paso en cada melodía
no es cuestion de dados suerte siento así es la vida
pero ven quiero contarte que paso estos años
a la luna que es testigo de lo que ha pasado
SOL         RE           MI
cuando el corazón no dá mas
SI estas perdido
 LA                                  RE
ven conmigo que te quiero dar mucho mas
                     SI
yo soy testigo de tu vida
 LA  RE
amor

amor...

|----------0-----0-1--0--------------------0--------|
|-----3---3-3---3------3-1-1-3--1-0---0-1-3-3-1-0---|
|----0---0-----0---------------------2------------2-|
|---------------------------------------------------|
|---------------------------------------------------|
|---------------------------------------------------|

|-5-3-2-----------------7-5-4---------0-------------|
|----------0-1-3-1-0-------------0-1-3-3-1-0-3------|
|-------0-2----------2-1--------2-------------0-2-0-|
|---------------------------------------------------|
|---------------------------------------------------|
|---------------------------------------------------|

|----------0-2-3-5-7-8-10--14-14-14-15-15-15-
|-1-0-----3----------------15-15-15-15-15-15-
|----2-0-------------------------------------
|--------------------------------------------
|--------------------------------------------
|--------------------------------------------


sol* x55787 (re desplazado con puente en el quinto traste)
sol  355433
sol# 466544

suena mejor con las notas en trastes altos
Suggest correction
Give kudos to tab author, rate the tab!
1 2 3 4 5
comments
print report bad tab
guest
You may want to rate the tab now too:
select rating
Wanna post a correction for this tab? Suggest correction